Oops, an error
Loading. Please wait.

Like A Virgin tab

version 1
version 1

Whole song

Interactive

by Madonna
8,926 views 12 this week
no commentswrite comment
1 2 3 4 5
x 3
add to favorites
×
Save as Personal and add changes to this tab that will be seen only by you. Learn more ›
×
You can save this tab as Personal to edit and correct it or add notes. All changes will be seen only by you. Learn more »
launch autoscroll
font size
0
reset
how to read this tab
guitar tuner
edit
Autoscroll
slow
fast
+/-
esc
set tempo
stop
Author
Difficulty
Like A Virgin
Madonna

Tempo : 120

     W                   W                   E  E  Q    E  E  Q     
E||-------------------|-------------------|-----2-------2----------|
B||-------------------|-------------------|-----2-------2----------|
G||-------------------|-------------------|-----3-------3----------|
D||-------------------|-------------------|------------------------|
A||-------------------|-------------------|------------------------|
E||-------------------|-------------------|------------------------|


  E  E  E  E  H           E  E  E  E  H           E  E  E  E  H         
--2--------2-----------|--2--------2-----------|--2--------2-----------|
--2--------2-----------|--2--------2-----------|--2--------2-----------|
--3--------3-----------|--3--------3-----------|--3--------3-----------|
-----------------------|-----------------------|-----------------------|
-----------------------|-----------------------|-----------------------|
-----------------------|-----------------------|-----------------------|


  E  E  E  E  H           E  E  E  E  H           E  E  E  E  E  E  E  E   
--2--------2-----------|--2--------2-----------|--4-----4-----4--4-----4--|
--2--------2-----------|--2--------2-----------|--4-----4-----4--4-----4--|
--3--------3-----------|--3--------3-----------|--4-----4-----4--4-----4--|
-----------------------|-----------------------|--------------------------|
-----------------------|-----------------------|--------------------------|
-----------------------|-----------------------|--------------------------|


  E  E  E  E  E  E  E  E     E  E  E  E  H           E  E  E  E  H         
-----4-----4-----4--4-----|--2--------2-----------|--2--------2-----------|
-----4-----4-----4--4-----|--2--------2-----------|--2--------2-----------|
-----4-----4-----4--4-----|--3--------3-----------|--3--------3-----------|
--------------------------|-----------------------|-----------------------|
--------------------------|-----------------------|-----------------------|
--------------------------|-----------------------|-----------------------|


  E  E  E  E  H           E  E  E  E  H           E  E  E  E  H         
--2--------2-----------|--2--------2-----------|--2--------2-----------|
--2--------2-----------|--2--------2-----------|--2--------2-----------|
--3--------3-----------|--3--------3-----------|--3--------3-----------|
-----------------------|-----------------------|-----------------------|
-----------------------|-----------------------|-----------------------|
-----------------------|-----------------------|-----------------------|


  E  E  E  E  H           Q    Q    E  E  E  E     E  E  E  E  E  E  E  E   
--2--------2-----------|--4----4----4--4--4--2--|--L--2--2--x--x--2--2--x--|
--2--------2-----------|--4----4----4--4--4--2--|--L--2--2--x--x--2--2--x--|
--3--------3-----------|--4----4----4--4--4--3--|--L--3--3--x--x--3--3--x--|
-----------------------|------------------------|--------------------------|
-----------------------|------------------------|--------------------------|
-----------------------|------------------------|--------------------------|


  Q    Q    E  E  E  E     E  E  E  E  E  E  E  E     E  E  E  E  E  E  E  E   
--4----4----4--4--4--2--|--L--2--2--x--x--2--2--x--|------------------------|
--4----4----4--4--4--2--|--L--2--2--x--x--2--2--x--|--7-----7-----7-----6---|
--4----4----4--4--4--3--|--L--3--3--x--x--3--3--x--|--6-----6-----6-----6---|
------------------------|--------------------------|--6-----6-----6-----6---|
------------------------|--------------------------|------------------------|
------------------------|--------------------------|------------------------|


  E  E  E  E  E  E  Q       W                   W                 
-------------------------|-------------------|-------------------|
--4-----4-----6----------|-------------------|-------------------|
--6-----6-----6----------|-------------------|-------------------|
--6-----6-----6----------|-------------------|-------------------|
-------------------------|-------------------|-------------------|
-------------------------|-------------------|-------------------|


  W                   W                   E  E  E  E  H         
-------------------|-------------------|--2--------2-----------|
-------------------|-------------------|--2--------2-----------|
-------------------|-------------------|--3--------3-----------|
-------------------|-------------------|-----------------------|
-------------------|-------------------|-----------------------|
-------------------|-------------------|-----------------------|


  E  E  E  E  H           E  E  E  E  H           E  E  E  E  H         
--2--------2-----------|--2--------2-----------|--2--------2-----------|
--2--------2-----------|--2--------2-----------|--2--------2-----------|
--3--------3-----------|--3--------3-----------|--3--------3-----------|
-----------------------|-----------------------|-----------------------|
-----------------------|-----------------------|-----------------------|
-----------------------|-----------------------|-----------------------|


  E  E  E  E  E  E  E  E     E  E  E  E  E  E  E  E     E  E  E  E  H         
--4-----4-----4--4-----4--|-----4-----4-----4--4-----|--2--------2----------|
--4-----4-----4--4-----4--|-----4-----4-----4--4-----|--2--------2----------|
--4-----4-----4--4-----4--|-----4-----4-----4--4-----|--3--------3----------|
--------------------------|--------------------------|----------------------|
--------------------------|--------------------------|----------------------|
--------------------------|--------------------------|----------------------|


  E  E  E  E  H           E  E  E  E  H           E  E  E  E  H         
--2--------2-----------|--2--------2-----------|--2--------2-----------|
--2--------2-----------|--2--------2-----------|--2--------2-----------|
--3--------3-----------|--3--------3-----------|--3--------3-----------|
-----------------------|-----------------------|-----------------------|
-----------------------|-----------------------|-----------------------|
-----------------------|-----------------------|-----------------------|


  E  E  E  E  H           E  E  E  E  H           Q    Q    E  E  E  E   
--2--------2-----------|--2--------2-----------|--4----4----4--4--4--2--|
--2--------2-----------|--2--------2-----------|--4----4----4--4--4--2--|
--3--------3-----------|--3--------3-----------|--4----4----4--4--4--3--|
-----------------------|-----------------------|------------------------|
-----------------------|-----------------------|------------------------|
-----------------------|-----------------------|------------------------|


  E  E  E  E  E  E  E  E     Q    Q    E  E  E  E     E  E  E  E  E  E  E  E   
--L--2--2--x--x--2--2--x--|--4----4----4--4--4--2--|--L--2--2--x--x--2--2--x|
--L--2--2--x--x--2--2--x--|--4----4----4--4--4--2--|--L--2--2--x--x--2--2--x|
--L--3--3--x--x--3--3--x--|--4----4----4--4--4--3--|--L--3--3--x--x--3--3--x|
--------------------------|------------------------|------------------------|
--------------------------|------------------------|------------------------|
--------------------------|------------------------|------------------------|


  E  E  E  E  E  E  E  E     E  E  E  E  E  E  Q       W                 
--------------------------|-------------------------|-------------------|
--7-----7-----7-----6-----|--4-----4-----6----------|-------------------|
--6-----6-----6-----6-----|--6-----6-----6----------|-------------------|
--6-----6-----6-----6-----|--6-----6-----6----------|-------------------|
--------------------------|-------------------------|-------------------|
--------------------------|-------------------------|-------------------|


  W                   W                   E  E  E  E  E  E  Q     
-------------------|-------------------|-------------------------|
-------------------|-------------------|-------------------------|
-------------------|-------------------|-------------------------|
-------------------|-------------------|--6----------------------|
-------------------|-------------------|-------------------------|
-------------------|-------------------|--------3-----3----------|


  E  E  E  E  H           E  E  E  E  H           E  E  E  E  H         
--2--------2-----------|--2--------2-----------|--2--------2-----------|
--2--------2-----------|--2--------2-----------|--2--------2-----------|
--3--------3-----------|--3--------3-----------|--3--------3-----------|
-----------------------|-----------------------|-----------------------|
-----------------------|-----------------------|-----------------------|
-----------------------|-----------------------|-----------------------|


  E  E  E  E  H           Q    Q    E  E  E  E     E  E  E  E  E  E  E  E   
--2--------2-----------|--4----4----4--4--4--2--|--L--2--2--x--x--2--2--x--|
--2--------2-----------|--4----4----4--4--4--2--|--L--2--2--x--x--2--2--x--|
--3--------3-----------|--4----4----4--4--4--3--|--L--3--3--x--x--3--3--x--|
-----------------------|------------------------|--------------------------|
-----------------------|------------------------|--------------------------|
-----------------------|------------------------|--------------------------|


  Q    Q    E  E  E  E     E  E  E  E  E  E  E  E     E  E  E  E  E  E  E  E   
--4----4----4--4--4--2--|--L--2--2--x--x--2--2--x--|------------------------|
--4----4----4--4--4--2--|--L--2--2--x--x--2--2--x--|--7-----7-----7-----6---|
--4----4----4--4--4--3--|--L--3--3--x--x--3--3--x--|--6-----6-----6-----6---|
------------------------|--------------------------|--6-----6-----6-----6---|
------------------------|--------------------------|------------------------|
------------------------|--------------------------|------------------------|


  E  E  E  E  E  E  Q       W                   W                 
-------------------------|-------------------|-------------------|
--4-----4-----6----------|-------------------|-------------------|
--6-----6-----6----------|-------------------|-------------------|
--6-----6-----6----------|-------------------|-------------------|
-------------------------|-------------------|-------------------|
-------------------------|-------------------|-------------------|


  W                   W                  
-------------------|-------------------||
-------------------|-------------------||
-------------------|-------------------||
-------------------|-------------------||
-------------------|-------------------||
-------------------|-------------------||

            
            
Suggest correction
Creating personal tab
Creating personal tab
You can edit any tab online and save it as your Personal.

You can edit, replace or remove any tab part or add personal notes – all changes will be seen only by you.

Personal tabs can be accessed anytime from any device, even offline.
Learn more »
Give kudos to tab author, rate the tab!
1 2 3 4 5
comments
print report bad tab
guest
You may want to rate the tab now too:
select rating
Wanna post a correction for this tab? Suggest correction