Oops, an error
Loading. Please wait.

Ich Trink Nur Eben Aus chords

by Madsen
262 views 3 this week
no commentswrite comment
1 2 3 4 5
2 more votes to show rating
add to favorites
×
Save as Personal and add changes to this tab that will be seen only by you. Learn more ›
×
You can save this tab as Personal to edit and correct it or add notes. All changes will be seen only by you. Learn more »
launch autoscroll
font size
0
reset
transpose
0
reset
simplify chords
display chords
guitar tuner
edit
Autoscroll
slow
fast
+/-
esc
set tempo
stop
Author
Difficulty
About this tab version
Changed the power chords in the refrain to full chords because it sounds better, but left the verses. Tried to match chords and lyrics in timing, should be correct. Was this info helpful? Yes No
Strumming Is this strumming pattern correct? Yes No
Intro/Verse 135 bpm
1
&
2
&
3
&
4
&
5
&
6
&
7
&
8
&
Listen
[Intro]

e|-----------------|-----------------|-----------------|-----------------|-----------------|
b|-----------------|-----------------|-----------------|-----------------|-----------------|
g|-------------2~--|-4~--------------|-------------2~--|-4~--------------|-------------2~--|
D|---------2~--2~--|-4~--------------|---------2~--2~--|-4~--------------|---------2~--2~--|
A|---------2~--0~--|-2~--------------|---------2~--0~--|-2~--------------|---------2~--0~--|
E|---------0~------|-----------------|---------0~------|-----------------|---------0~------|


   Riff (durch alle Strophen)
   B5      A5        G5      E5  A5
e|-----------------|-----------------|-----------------|-----------------|
b|-----------------|-----------------|-----------------|-----------------|
g|-4---x-4-4---x-4-|-4---x-4-----2---|-4---x-4-4---x-4-|-4---------------|
D|-4---x-4-4---x-4-|-4---x-4-2---2---|-4---x-4-4---x-4-|-4---------------|
A|-2---x-2-0---x-0-|-x---x-x-2---0---|-2---x-2-0---x-0-|-x---------------|
E|-----------------|-3---x-3-0-------|-----------------|-3---------------|

[Verse 1]

                           B5    A5 G5
Immer der gleiche Weg nach Hause
      E5      A5     B5    A5 G5
ganz egal, wo lang ich geh
    E5    A5    B5      A5    G5
Ich kenne jeden Pflasterstein
        E5    A5 B5     A5 G5
hab ihn x-mal umgedreht
        E5           B5       A5 G5
All die regungslosen Menschen
    E5       A5  B5     A5 G5
von Fenstern eingerahmt
    E5     A5      B5      A5     G5
Ich bin so gut wie auf der Flucht
         E5   A5    B5     A5 G5 D
hab' sie jahrelang geplant

[Pre-Chorus]

         E5       D5 A5
Nur noch kurz zu Erika
         F#5        A5  G5
an einem Platz an ihrer Bar
        E5           D5 A5
Es gibt keinen Grund zu weinen
          F#5
bald wird alles anders sein

[Refrain]

     G                    D
Über 70 Brücken werd' ich gehen
                    A
Ihr werdet es schon sehen
                Bm
ich werde diese Welt verändern
G                D
Es ist klar, ich werd' ein Star
    F#
Ich hör' schon den Applaus
    F#              B5  A5 G5 
Ich trink' nur eben aus

[Instrumental]

E5 A5 B5 A5 G5

[Verse 2]

          E5          B5      A5 G5
Ich werde endlich was bewegen
        E5       A5     B5   A5 G5
geredet hab' ich schon genug
           E5        A5     B5    A5 G5
ich weiß genau fast, wo ich hin will
              E5    A5     B5     A5 G5 D
und buch' mir heute noch den Flug

[Pre-Chorus]

    E5        D5 A5
Du, hör mal, Erika
   F#5         A5  G5
Es ist zum Greifen nah
        E5           D5 A5
Es gibt keinen Grund zu weinen
          F#5
bald wird alles besser sein

[Refrain]

     G                    D
Über 70 Brücken werd' ich gehen
                    A
Ihr werdet es schon sehen
                Bm
ich werde diese Welt verändern
G                D
Es ist klar, ich werd' ein Star
    F#
Ich hör' schon den Applaus
    F#              B5  A5 G5 
Ich trink' nur eben aus

[Instrumental]

E5 A5 B5 A5 G5 E5 D5

[Bridge]

e|------------------|-----------------|
b|------------------|-----------------|
g|--------4---------|-------4---------|
D|------5-----5-----|-----5-----5-----|
A|--3---------------|-3---------------|
E|------------------|-----------------|
Und Udo   singt im Ra-    dio     hinter'm

e|------------------|-----------------|
b|------------------|-----------------|
g|-------4----------|-------4---------|
D|-----5-----5------|-----5-----5-----|
A|------------------|-----------------|
E|-3----------------|-3---------------|
   Hori- zont geht's weiter

e|------------------|-----------------|
b|------------------|-----------------|
g|--------4---------|-------4---------|
D|------5-----5-----|-----5-----5-----|
A|--3---------------|-3---------------|
E|------------------|-----------------|
Ich denke mir "ja   klar" und so

   E5                F#5
an mir soll es nicht scheitern

[Instrumental]

B5 A5 G5 E5 A5
B5 A5 G5 E5 A5
B5 A5 G5 E5 A5
B5 A5 G5 E5 F#5

[Refrain]

     G                    D
Über 70 Brücken werd' ich gehen
                    A
Ihr werdet es schon sehen
                Bm
ich werde diese Welt verändern
G                D
Es ist wahr, ich werd' ein Star
    F#
Ich hör' schon den Applaus
    F#              G   D
Ich trink' nur eben aus
                    A   Bm
Ich rauch' nur eben auf
                    G   D
Ich trink' nur eben aus
                    F#
Ich rauch' nur eben auf

[Outro]

B5 A5 G5 E5 A5
B5 A5 G5 E5 A5



************************************

| ~  Vibrato
| x  Dead note

************************************

            
            
Suggest correction
Creating personal tab
Creating personal tab
You can edit any tab online and save it as your Personal.

You can edit, replace or remove any tab part or add personal notes – all changes will be seen only by you.

Personal tabs can be accessed anytime from any device, even offline.
Learn more »
Give kudos to tab author, rate the tab!
1 2 3 4 5
comments
print report bad tab
guest
You may want to rate the tab now too:
select rating
Wanna post a correction for this tab? Suggest correction