Oops, an error
Loading. Please wait.

Nachtbaden tab

version 1
version 1

Whole song

Interactive

by Madsen
13,315 views 12 this week
3 commentsread comments
1 2 3 4 5
x 6
add to favorites
×
Save as Personal and add changes to this tab that will be seen only by you. Learn more ›
×
You can save this tab as Personal to edit and correct it or add notes. All changes will be seen only by you. Learn more »
launch autoscroll
font size
0
reset
how to read this tab
guitar tuner
edit
Autoscroll
slow
fast
+/-
esc
set tempo
stop
-------------------------------------------------------------------------------
                             MADSEN - Nachtbaden
-------------------------------------------------------------------------------
Tabbed by: Daniel von .random - www.randomrocks.de
Email: dgoetjen@hotmail.com

Tuning: eBGDAD Drop D; Standard geht aber auch

Das Ganze ist im Prinzip wirklich einfach; wechselt einfach in der Strophe zwischen 
Akkorden:

   A    G      die beiden im Wechsel mit:    C    Bb

e|----------|------------------------------|----------|
B|----------|------------------------------|----------|
G|----------|------------------------------|----------|
D|-7----5---|------------------------------|-10----8--|
A|-7----5---|------------------------------|-10----8--|
D|-7----5---|------------------------------|-10----8--|

Vor dem Refrain dann G:

e|---|
B|---|
G|---|
D|-5-|
A|-5-|
D|-5-|


Refrain:

   C     C     F    G    3x, dann   F    G    A
e|-----------------------|        |------------|
B|-----------------------|        |------------|
G|-----------------------|        |------------|
D|-10----10----3----5----|        |-3----5----7|
A|-10----10----3----5----|        |-3----5----7|
D|-10----10----3----5-- -|        |-3----5----7|

Im letzten Refrain ist alles zwei Halbtöne höher, also:

   D     D     G    A    3x, dann   G    A    D
e|-----------------------|        |-------------|
B|-----------------------|        |-------------|
G|-----------------------|        |-------------|
D|-12----12----5----7----|        |-5----7----12|
A|-12----12----5----7----|        |-5----7----12|
D|-12----12----5----7-- -|        |-5----7----12|


Viel Spaß damit! Das neue Album "Frieden im Krieg" kommt am 7. März 2008 in die Läden, 
euch und unterstützt die Band! Korrekturen und Kommentare sind natürlich willkommen; 
hat ja jemand Lust, das Solo zu tabben ;)

Daniel

            
            
Suggest correction
Creating personal tab
Creating personal tab
You can edit any tab online and save it as your Personal.

You can edit, replace or remove any tab part or add personal notes – all changes will be seen only by you.

Personal tabs can be accessed anytime from any device, even offline.
Learn more »
comments
print report bad tab
3 comments total.
+3 reply
randommusic_D 206 Mar 13, 2008 01:06 PM

ah, ich hab mich verschrieben; im letzten Chorus ist natürlich alles zwei Halbtöne höher und nicht einen ;) die Akkorde, die da stehen, sind aber so richtig.

0 reply
georgs22 15 Sep 13, 2008 08:57 AM

danke für den tab!!!

0 reply
Fred026 10 Jun 08, 2011 03:01 AM

Moin!
guter Tab :)
ich kenne zwar nur eine Live-Version, aber da klingt es jedenfalls so, als wenn der C-Powerchord tiefer gespielt wird (also wohl mit noch tiefer gestimmten Gitarren) ;)

guest
You may want to rate the tab now too:
select rating
Wanna post a correction for this tab? Suggest correction