Oops, an error
Loading. Please wait.

Everytime We Touch tab

29,375 views 66 this week
3 commentsread comments
1 2 3 4 5
x 10
add to favorites
×
Save as Personal and add changes to this tab that will be seen only by you. Learn more ›
×
You can save this tab as Personal to edit and correct it or add notes. All changes will be seen only by you. Learn more »
launch autoscroll
font size
0
reset
how to read this tab
guitar tuner
edit
Autoscroll
slow
fast
+/-
esc
set tempo
stop
by Iloveblondgirls - you know me?

e |-----------------------------------------------------------------------|
h |-----------------------------------------------------------------10-12-|
G |-----------------------------------------------------------------------|
D |-7-6-4-2-4—4-2-----2-4-6-7-9-----7-6-4-2-2-4-6-9-12-12-12-14-----------|
A |---------------2-4-----------7-------------------------------12--------|
E |-----------------------------------------------------------------------|

e |--------------------------|
h |14-14-14-17-14-12-10-12-9-|
G |--------------------------|
D |--------------------------|
A |--------------------------|
E |--------------------------|


F#m        E         Hm
A shooting star fell down to earth
F#m       E           D
Lightning cracked the sky
F#m       E        Hm
Something weird is happening
F#m       E       D
Something I can't deny

Hm                 G
A strange kind of magic
A
Running through my brain
Hm           G
Feel I'm in heaven
A               C#
Or going insane

                   D       E        F#m
Cause everytime we touch I get this feeling 
                 D      E             F#m
and everytime we kiss I swear I could fly
                  D          A
Can't you feel my heart beat fast
  E            F#m
I want this to last
D              E
Need you by my side
                   D       E        F#m
Cause everytime we touch I feel the static 
                 D      E             F#m
and everytime we kiss I reach for the sky
                  D          A
Can't you hear my heart beat so
  E             F#m
I can't let you go
A              E
Want you in my life

e |---------------------2-4-5>12-9---------------|
h |--------------------------------12-10-10-12-9-|
G |----------------------------------------------|
D |-7-6-4-2-4—4-2-----2--------------------------|
A |---------------2-4----------------------------|
E |----------------------------------------------|
 

F#m      E          Hm
The wind was like a hurricane
F#m          E         D
Storm clouds filled the sky
F#m       E        Hm
I heard a crash of thunder
F#m       E        D
The earth shook in reply

Hm                G
A strange kind of magic
A
Running through my brain
Hm               G
Feel like I'm in heaven
A               C#m
Or going insane

                   D       E        F#m
Cause everytime we touch I get this feeling 
                 D      E             F#m
and everytime we kiss I swear I could fly
                  D          A
Can't you feel my heart beat fast
  E            F#m
I want this to last
D              E
Need you by my side

                   D       E        F#m
Cause everytime we touch I feel the static 
                 D      E             F#m
and everytime we kiss I reach for the sky
                  D          A
Can't you hear my heart beat so
  E             F#m
I can't let you go
A              E
Want you in my life

e |-----------------------------------------------------------------------|
h |--------------------------------------------------------------10-12-14-|
G |-----------------------------------------------------------------------|
D |-7-6-4-2-4—4-2-----2-4-6-7-9-----7-6-4-2-2-4-6-9-12—14-12--------------|
A |---------------2-4-----------7----------------------------12-----------|
E |-----------------------------------------------------------------------|

e |------------------|
h |14-14-17-14-12-14-|
G |------------------|
D |------------------|
A |------------------|
E |------------------|
                   D       E        F#m 
Cause everytime we touch I get this feeling 
                 D      E             F#m
and everytime we kiss I swear I could fly
                  D          A
Can't you feel my heart beat fast
  E            F#m
I want this to last
D              E
Need you by my side
                   D       E        F#m
Cause everytime we touch I feel the static 
                 D      E             F#m
and everytime we kiss I reach for the sky
                  D          A
Can't you hear my heart beat so
  E             F#m
I can't let you go
A              E
Want you in my life




by Iloveblondgirls - you know me?

            
            
Suggest correction
Creating personal tab
Creating personal tab
You can edit any tab online and save it as your Personal.

You can edit, replace or remove any tab part or add personal notes – all changes will be seen only by you.

Personal tabs can be accessed anytime from any device, even offline.
Learn more »
comments
print report bad tab
3 comments total.
-1 reply
MrsMCKuchen 10 Jul 07, 2013 11:12 AM

Awesome! :)

0 reply
Danont 269 Dec 29, 2013 06:37 AM, edited on January 8 2014, 09:42 am

Just a little bit of correction, by the way sounds good.

0 reply
Danont 269 Dec 29, 2013 06:41 AM

Again without mistakes

Intro
e |------------------------------------------|
h |------------------------------------------|
G |------------------------------------------|
D |--6b7r6-4-2-4----2h4p2-----2---4--6-7-9---|
A |-----------------------2-4---------------7|
E |------------------------------------------|

e |--------------------------------------------------------------------|
h |------------------------5----------10-12s14--14-17-14-12-10-10-12-9-|
G |--------------------4-6---7-6---------------------------------------|
D |-6b7r6-4-0-2----4-6-----------4-------------------------------------|
A |--------------------------------------------------------------------|
E |--------------------------------------------------------------------|

Intermezzo 1
e |------------------------------2-4-5s12-9----------------|
h |--------------------------------------------12-10-10-12-9-|
G |----------------------------------------------------------|
D |--6b7r6-4-2-4----2h4p2-----2------------------------------|
A |-----------------------2-4--------------------------------|
E |----------------------------------------------------------|

Intermezzo 2
e |------------------------------------------|
h |------------------------------------------|
G |------------------------------------------|
D |--6b7r6-4-2-4----2h4p2-----2---4--6-7-9---|
A |-----------------------2-4---------------7|
E |------------------------------------------|

e |----------------------------------------------------------------|
h |------------------------5----------10-12s14--14-17-14-12-10-14--|
G |--------------------4-6---7-6-----------------------------------|
D |-6b7r6-4-0-2----4-6-----------4---------------------------------|
A |----------------------------------------------------------------|
E |----------------------------------------------------------------|


b - bend
r - release
h - hammer
p - pull
s - slide

guest
You may want to rate the tab now too:
select rating
Wanna post a correction for this tab? Suggest correction