Oops, an error
Loading. Please wait.

I Remember tab

by Mahalia
5,425 views 90 this week
6 commentsread comments
1 2 3 4 5
x 4
add to favorites
×
Save as Personal and add changes to this tab that will be seen only by you. Learn more ›
×
You can save this tab as Personal to edit and correct it or add notes. All changes will be seen only by you. Learn more »
launch autoscroll
font size
0
reset
how to read this tab
guitar tuner
edit
Autoscroll
slow
fast
+/-
esc
set tempo
stop
Mahalia - I Remember - #DiaryOfMe
Standard Tuning
Capo 4
Tabs relative to capo
Intro, verse and chorus' are all similar just with slight variations
Based off the youtube version from Mahalia's official channel - https://www.youtube.com/watch?v=dHcRiu7YyyA



[Intro]

e|------3-----------3-----------2-----------2-----------3-----------3-----------3--------|
B|---0-----0-----0-----0-----0-----0-----0-----0-----0-----0-----0-----0-----0-----0-----|
G|---------------------------------------------------------------------------------------|
D|---------------------------------------------------------------------------------------|
A|------------------------------------------------------------------------3-----------3--|
E|3-----------3-----------2-----------2-----------0-----------0--------------------------|x1


[Verse]

e|------3-----------3-----------2-----------2-----------3-----------3-----------3-----------3--------|
B|---0-----0-----0-----0-----0-----0-----0-----0-----0-----0-----0-----0-----0-----0-----0-----0-----|
G|---------------------------------------------------------------------------------------------------|
D|---------------------------------------------------------------------------------------------------|
A|------------------------------------------------------------------------3-----------3--------------|
E|3-----------3-----------2-----------2-----------0-----------0--------------------------------------|x2


[Chorus]

e|------3-----------3-----------2-----------2-----------3-----------3-----------3-----------3--------|
B|---0-----0-----0-----0-----0-----0-----0-----0-----0-----0-----0-----0-----0-----0-----0-----0-----|
G|---------------------------------------------------------------------------------------------------|
D|---------------------------------------------------------------------------------------------------|
A|------------------------------------------------------------------------3-----------3--------------|
E|3-----------3-----------2-----------2-----------0-----------0--------------------------------------|

e|------3-----------3-----------2-----------2-----------3-----------3-----------3--------|
B|---0-----0-----0-----0-----0-----0-----0-----0-----0-----0-----0-----0-----0-----0-----|
G|---------------------------------------------------------------------------------------|
D|---------------------------------------------------------------------------------------|
A|------------------------------------------------------------------------3-----------3--|
E|3-----------3-----------2-----------2-----------0-----------0--------------------------|


[Verse]

e|------3-----------3-----------2-----------2-----------3-----------3-----------3-----------3--------|
B|---0-----0-----0-----0-----0-----0-----0-----0-----0-----0-----0-----0-----0-----0-----0-----0-----|
G|---------------------------------------------------------------------------------------------------|
D|---------------------------------------------------------------------------------------------------|
A|------------------------------------------------------------------------3-----------3--------------|
E|3-----------3-----------2-----------2-----------0-----------0--------------------------------------|

e|------3-----------3-----------2-----------2-----------3-----------3-----------3--------|
B|---0-----0-----0-----0-----0-----0-----0-----0-----0-----0-----0-----0-----0-----0-----|
G|---------------------------------------------------------------------------------------|
D|------------------------------------------------------------------------------------0--|
A|------------------------------------------------------------------------3--------------|
E|3-----------3-----------2-----------2-----------0-----------0--------------------------|


[Chorus]

e|------3-----------3-----------2-----------2-----------3-----------3-----------3-----------3--------|
B|---0-----0-----0-----0-----0-----0-----0-----0-----0-----0-----0-----0-----0-----0-----0-----0-----|
G|---------------------------------------------------------------------------------------------------|
D|---------------------------------------------------------------------------------------------------|
A|------------------------------------------------------------------------3-----------3--------------|
E|3-----------3-----------2-----------2-----------0-----------0--------------------------------------|

e|------3-----------3-----------2-----------2-----------3-----------3-----------3-----------3--------|
B|---0-----0-----0-----0-----0-----0-----0-----0-----0-----0-----0-----0-----0-----0-----0-----0-----|
G|---------------------------------------------------------------------------------------------------|
D|---------------------------------------------------------------------------------------------------|
A|------------------------------------------------------------------------3-----------3--------------|
E|3-----------3-----------2-----------2-----------0-----------0--------------------------------------|

[Bridge]

e|------------------------------------------------------------------------------------------------|
B|------1-----------1-----------0-----------0-----------3-----------3-----------3-----------3-----|
G|---0-----0-----0-----0-----0-----0-----0-----0-----0-----0-----0-----0-----0-----0-----0-----0--|
D|------------------------------------------------------------------------------------------------|
A|0-----------0-----------------------------------------------------------------------------------|
E|------------------------0-----------0-----------3-----------3-----------2-----------2-----------|

e|---------------------------------------------------------------------------|
B|------1-----------1-----------0-----------0-----------3-----------3--------|
G|---0-----0-----0-----0-----0-----0-----0-----0-----0-----0-----0-----0-----|
D|---------------------------------------------------------------------------|
A|0-----------0-----------------------------------3-----------3-----------3--|
E|------------------------0-----------0--------------------------------------|


[Chorus]

e|------3-----------3-----------2-----------2-----------3-----------3-----------3-----------3--------|
B|---0-----0-----0-----0-----0-----0-----0-----0-----0-----0-----0-----0-----0-----0-----0-----0-----|
G|---------------------------------------------------------------------------------------------------|
D|---------------------------------------------------------------------------------------------------|
A|------------------------------------------------------------------------3-----------3--------------|
E|3-----------3-----------2-----------2-----------0-----------0--------------------------------------|

e|------3-----------3-----------2-----------2-----------3-----------3-----------3--------|
B|---0-----0-----0-----0-----0-----0-----0-----0-----0-----0-----0-----0-----0-----0-----|
G|---------------------------------------------------------------------------------------|
D|---------------------------------------------------------------------------------------|
A|------------------------------------------------------------------------3-----------3--|
E|3-----------3-----------2-----------2-----------0-----------0--------------------------|


[Outro]

e|------3-----------3-----------2-----------2-----------3-----------3-----------3-----------3--------|
B|---0-----0-----0-----0-----0-----0-----0-----0-----0-----0-----0-----0-----0-----0-----0-----0-----|
G|---------------------------------------------------------------------------------------------------|
D|---------------------------------------------------------------------------------------------------|
A|------------------------------------------------------------------------3-----------3--------------|
E|3-----------3-----------2-----------2-----------0-----------0--------------------------------------|

e|-------3------------3-----------2-----------2-----------3-----------3-----------3-----------3--------|
B|---0-------0-----0-----0-----0-----0-----0-----0-----0-----0-----0-----0-----0-----0-----0-----0-----|
G|-----------------------------------------------------------------------------------------------------|
D|-----------------------------------------------------------------------------------------------------|
A|--------------------------------------------------------------------------3-----------3--------------|
E|3-------------3-----------2-----------2-----------0-----------0-----------------------------------3--|

            
            
Suggest correction
Creating personal tab
Creating personal tab
You can edit any tab online and save it as your Personal.

You can edit, replace or remove any tab part or add personal notes – all changes will be seen only by you.

Personal tabs can be accessed anytime from any device, even offline.
Learn more »
comments
print report bad tab
6 comments total. Showing first comments.
+1 reply
mimigreen 21 Jun 21, 2017 01:02 PM

this is great!!!!!!!!

0 reply
harjan.gahir 81 Jun 27, 2017 07:21 PM

Lol thanks, procrastination does pay off...

+2 reply
emyjwk 10 Aug 31, 2017 07:15 AM

Someone who knows which chords i can play if I dont play tabs?

guest
You may want to rate the tab now too:
select rating
Wanna post a correction for this tab? Suggest correction