Oops, an error
Loading. Please wait.

Hide Away tab

version 1
version 1

Whole song

Interactive

599 views 1 this week
no commentswrite comment
1 2 3 4 5
2 more votes to show rating
add to favorites
×
Save as Personal and add changes to this tab that will be seen only by you. Learn more ›
×
You can save this tab as Personal to edit and correct it or add notes. All changes will be seen only by you. Learn more »
launch autoscroll
font size
0
reset
how to read this tab
guitar tuner
edit
Autoscroll
slow
fast
+/-
esc
set tempo
stop
Song: Hide Away 
Artist: Make Do And Mend
Album: Everything You Ever Loved
Year: 2012
Tuning: Drop D




1st Guitar
Verse – 0:02
     PM PM PM PM PM PM PM PM    PM PM PM PM PM PM PM PM  
E||--------------------------|--------------------------|
B||--------------------------|--------------------------|               Cont.
G||--------------------------|--------------------------|
D||--------------------------|--------------------------|
A||--2--2--2--2--2--2--2--2--|--2--2--2--2--2--2--2-----|
D||--------------------------|-----------------------5--|
  PM PM PM PM PM PM PM PM    PM PM PM PM PM PM PM PM  
--------------------------|--------------------------|
--------------------------|--------------------------|          X3
--------------------------|--------------------------|
--------------------------|--------------------------|
--0--0--0--0--0--0--0--0--|--0-----------------------|
--------------------------|-----2--2--2--2--0--0--0--|


1st Guitar
Verse – 0:28
     PM PM PM PM PM PM PM PM    PM PM PM PM PM PM PM PM  
--------------------------|--------------------------|
--------------------------|--------------------------|          Cont.
--------------------------|--------------------------|
--------------------------|--------------------------|
--2--2--2--2--2--2--2--2--|--2--2--2--2--2--2--2-----|
--------------------------|-----------------------5--|
  PM PM PM PM PM PM PM PM    PM PM PM PM PM PM PM PM                    
--------------------------|--------------------------|
--------------------------|--------------------------|
--------------------------|--------------------------|
--------------------------|--------------------------|
--0--0--0--0--0--0--0--0--|--0--0--0--0--0--0--0--0--|
--------------------------|--------------------------|




2st Guitar – Clean
Verse – 0:36
-----------------------|-----------------------|
--------5--------------|--------5--------------|                X3
--7--------7-----------|--7--------7-----------|
-----7-----------------|-----7----------7------|
-----------------------|-----------------------|
-----------------------|-----------------------|


-----------------------|-------------------|
--------5--------------|-------------------|
--7--------7-----------|--6----------------|
-----7----------7------|-------------------|
-----------------------|-------------------|
-----------------------|-------------------|




1st Guitar
Verse – 0:52
  PM PM PM PM PM PM PM PM    PM PM PM PM PM PM PM PM   
--------------------------|--------------------------|
--------------------------|--------------------------|          Cont.
--------------------------|--------------------------|
--------------------------|--------------------------|
--2--2--2--2--2--2--2--2--|--2--2--2--2--2--2--2--2--|
--------------------------|--------------------------|
  PM PM PM PM PM PM PM PM    PM PM PM PM PM PM PM PM   
--------------------------|--------------------------|
--------------------------|--------------------------|          X3
--------------------------|--------------------------|
--------------------------|--------------------------|
--0--0--0--0--0--0--0--0--|--0--0--0--0--0--0--0--0--|
--------------------------|--------------------------|


  PM PM PM PM PM PM PM PM    PM PM PM PM PM PM PM PM   
--------------------------|--------------------------|
--------------------------|--------------------------|          Cont.
--------------------------|--------------------------|
--------------------------|--------------------------|
--2--2--2--2--2--2--2--2--|--2--2--2--2--2--2--2--2--|
--------------------------|--------------------------|
  PM PM PM PM PM PM PM PM  
--------------------------|--------------------------|
--------------------------|--------------------------|  
--------------------------|--------------------------|
--------------------------|--------------------------|
--0--0--0--0--0--0--0--0--|--0-----------------------|
--------------------------|--------------------------|




2nd Guitar
Verse – 0:52
----------------------|------------------------|
--7-------------------|--7------------7--------|                Cont.
------9---------------|------9-----------9-----|
----------9-----------|----------9----------9--|
----------------------|------------------------|
----------------------|------------------------|

----------------------|------------------------|
--5-------------------|--5------------5--------|                X3
------7---------------|------7-----------7-----|
----------7-----------|----------7----------7--|
----------------------|------------------------|
----------------------|------------------------|


------------------------|-------------------------|
-------------5----------|-------------5-----------|             Cont.
-------7--------7-------|-------7--------7-----7--|
--6-------6----------6--|----------6--------6-----|
------------------------|-------------------------|
------------------------|-------------------------|

-------------------------|-----------------------|
-------------5-----------|-----------------------|
-------7--------7-----7--|--6b------4------------|
--5-------5--------5-----|-------------4b--------|
-------------------------|-----------------------|
-------------------------|-----------------------|





1st Guitar
Chorus – 1:24
--------------------------|--------------------------|
--------------------------|--------------------------|          Cont.
--------------------------|--------------------------|
--------------------------|--------------------------|
--5--5--5--5--5--5--5--5--|--0--0--0--0--0--0--0--0--|
--5--5--5--5--5--5--5--5--|--0--0--0--0--0--0--0--0--|

--------------------------|--------------------------|
--------------------------|--------------------------|          Cont.
--------------------------|--------------------------|
--------------------------|--------------------------|
--7--7--7--7--7--7--7--7--|--2--2--2--2--2--4--4--4--|
--7--7--7--7--7--7--7--7--|--2--2--2--2--2--4--4--4--|

--------------------------|--------------------------|
--------------------------|--------------------------|          Cont.
--------------------------|--------------------------|
--------------------------|--7--7--7--7--7--7--7--7--|
--5--5--5--5--5--5--5--5--|--5--5--5--5--5--5--5--5--|
--5--5--5--5--5--5--5--5--|--------------------------|

--------------------------|--------------------------|
--------------------------|--------------------------|          X2
--------------------------|--------------------------|
--------------------------|--------------------------|
--7--7--7--7--7--7--7--7--|--2--2--2--2--2--4--4--4--|
--7--7--7--7--7--7--7--7--|--2--2--2--2--2--4--4--4--|
                       2nd time last bar ring out on 7

  



2nd Guitar – Distorted
Chorus – 1:24
--------------------------|--------------------------|
--7--7--------------5--5--|--7--7--------------5--5--|          Cont.
--------4--4--7--7--------|--------4--4--7--7--------|
--------------------------|--------------------------|
--------------------------|--------------------------|
--------------------------|--------------------------|

--------------------------|--------------------------|
--3--3--------2--2--3--3--|--2--2--------------------|          Cont.
--------2--2--------------|--------2--2--4--4--------|
--------------------------|--------------------4--4--|
--------------------------|--------------------------|
--------------------------|--------------------------|

--------------------------|--------------------------|
--7--7--------------5--5--|--7--7--------------5--5--|          Cont.
--------4--4--7--7--------|--------4--4--7--7--------|
--------------------------|--------------------------|
--------------------------|--------------------------|
--------------------------|--------------------------|

--------------------------|------------------------|
--3--3--------2--2--3--3--|--2--2------------------|                    Cont.
--------2--2--------------|--------2--2------------|
--------------------------|--------------4b--------|
--------------------------|------------------------|
--------------------------|------------------------|

--------------------------|----------------------------|
--7--7--------------7--7--|--10--10--------------5--5--|                Cont.
--------4--4--7--7--------|----------4--4--7--7--------|
--------------------------|----------------------------|
--------------------------|----------------------------|
--------------------------|----------------------------|

--------------------------|----------------------------|
--7--7--------------7--7--|--10--10--------------5--5--|                Cont.
--------4--4--7--7--------|----------4--4--7--7--------|
--------------------------|----------------------------|
--------------------------|----------------------------|
--------------------------|----------------------------|

--------------------------|--------------------------|
--7--7--------------5--5--|--7--7--------------5--5--|          Cont.
--------4--4--7--7--------|--------4--4--7--7--------|
--------------------------|--------------------------|
--------------------------|--------------------------|
--------------------------|--------------------------|

--------------------------|---------------------------|
--3--3--------2--2--3--3--|--2---2------2b------------|
--------2--2--------------|----------2--------2~---\--|
--------------------------|---------------------------|
--------------------------|---------------------------|
--------------------------|---------------------------|






1st Guitar
Post Chorus – 1:55
       PM PM PM PM PM PM    PM PM PM PM PM PM PM PM  
-------------------------|--------------------------|
-------------------------|--------------------------|           Cont.
-------------------------|--------------------------|
-------------------------|--------------------------|
--2----2--2--2--2--2--2--|--2--2--2--2--2--2--2--2--|
-------------------------|--------------------------|
       PM PM PM PM PM PM    PM PM PM PM              
-------------------------|--------------------------|
-------------------------|--------------------------|
-------------------------|--------------------------|
-------------------------|--------------------------|
--2----2--2--2--2--2--2--|--2--2--2--2--2--2--2-----|
-------------------------|--------------------------|





2nd Guitar – Clean
Post Chorus – 1:55
----------------------|------------------------|
--7-------------------|--7------------7--------|                Cont.
------9---------------|------9-----------9-----|
----------9-----------|----------9----------9--|
----------------------|------------------------|
----------------------|------------------------|

------------------------|----------------------|
--7------------7--------|--7-------------------|
------9-----------9-----|--9-------------------|
----------9----------9--|----------------------|
------------------------|----------------------|
------------------------|----------------------|





1st Guitar
Verse – 2:04
  PM PM PM PM PM PM PM PM    PM PM PM PM PM PM PM PM  
--------------------------|--------------------------|
--------------------------|--------------------------|          Cont.
--------------------------|--------------------------|
--------------------------|--------------------------|
--2--2--2--2--2--2--2--2--|--2--2--2--2--2--2--2-----|
--------------------------|-----------------------5--|
  PM PM PM PM PM PM PM PM    PM PM PM PM PM PM PM PM                    
--------------------------|--------------------------|
--------------------------|--------------------------|          X3
--------------------------|--------------------------|
--------------------------|--------------------------|
--0--0--0--0--0--0--0--0--|--0--0--0--0--0--0--0-----|
--------------------------|-----------------------5--|


  PM PM PM PM PM PM PM PM    PM PM PM PM PM PM PM PM   
--------------------------|--------------------------|
--------------------------|--------------------------|          Cont.
--------------------------|--------------------------|
--------------------------|--------------------------|
--2--2--2--2--2--2--2--2--|--2--2--2--2--2--2--2--2--|
--------------------------|--------------------------|
  PM PM PM PM PM PM PM PM  
--------------------------|--------------------------|
--------------------------|--------------------------|  
--------------------------|--------------------------|
--------------------------|--------------------------|
--0--0--0--0--0--0--0--0--|--0-----------------------|
--------------------------|--------------------------|




2nd Guitar – Clean
Verse – 2:04
----------------------|------------------------|
--7-------------------|--7------------7--------|                Cont.
------9---------------|------9-----------9-----|
----------9-----------|----------9----------9--|
----------------------|------------------------|
----------------------|------------------------|

----------------------|------------------------|
--5-------------------|--5------------5--------|                Cont.
------7---------------|------7-----------7-----|
----------7-----------|----------7----------7--|
----------------------|------------------------|
----------------------|------------------------|

----------------------|------------------------|
--7-------------------|--7------------7--------|                Cont.
------9---------------|------9-----------9-----|
----------9-----------|----------9----------9--|
----------------------|------------------------|
----------------------|------------------------|

------------------------|-------------------|
--5------------5--------|--5----------------|
------7-----------7-----|--7----------------|
----------7----------7--|--7----------------|
------------------------|-------------------|
------------------------|-------------------|



2:19
--10--10--10--10--10--9--9--9--|--10--10--10--7--7--7--10--10--|
-------------------------------|-------------------------------|                Cont.
-------------------------------|-------------------------------|
-------------------------------|-------------------------------|
-------------------------------|-------------------------------|
-------------------------------|-------------------------------|

 
--10--10--10--10--10--9--9--9--|--10--10--10--5--5--5--10--10--|
-------------------------------|-------------------------------|                Cont.
-------------------------------|-------------------------------|
-------------------------------|-------------------------------|
-------------------------------|-------------------------------|
-------------------------------|-------------------------------|

--10--10--10--10--10--9--9--9--|--10--10--10--7--7--7--10--10--|
-------------------------------|-------------------------------|                Cont.
-------------------------------|-------------------------------|
-------------------------------|-------------------------------|
-------------------------------|-------------------------------|
-------------------------------|-------------------------------|

--10--10--10--10--10--9--9--9--|--9b----------------|
-------------------------------|--------------------|
-------------------------------|--------------------|
-------------------------------|--------------------|
-------------------------------|--------------------|
-------------------------------|--------------------|





1st Guitar
Chorus – 2:34
--------------------------|--------------------------|
--------------------------|--------------------------|          Cont.
--------------------------|--------------------------|
--------------------------|--------------------------|
--5--5--5--5--5--5--5--5--|--0--0--0--0--0--0--0--0--|
--5--5--5--5--5--5--5--5--|--0--0--0--0--0--0--0--0--|

--------------------------|--------------------------|
--------------------------|--------------------------|          Cont.
--------------------------|--------------------------|
--------------------------|--------------------------|
--7--7--7--7--7--7--7--7--|--2--2--2--2--2--4--4--4--|
--7--7--7--7--7--7--7--7--|--2--2--2--2--2--4--4--4--|

--------------------------|--------------------------|
--------------------------|--------------------------|          Cont.
--------------------------|--------------------------|
--------------------------|--7--7--7--7--7--7--7--7--|
--5--5--5--5--5--5--5--5--|--5--5--5--5--5--5--5--5--|
--5--5--5--5--5--5--5--5--|--------------------------|

--------------------------|--------------------------|
--------------------------|--------------------------|          X2
--------------------------|--------------------------|
--------------------------|--------------------------|
--7--7--7--7--7--7--7--7--|--2--2--2--2--2--4--4--4--|
--7--7--7--7--7--7--7--7--|--2--2--2--2--2--4--4--4--|
                        2nd time last bar ring out on 7
 
  



2nd Guitar – Distorted
Chorus – 2:34
--------------------------|--------------------------|
--7--7--------------5--5--|--7--7--------------5--5--|          Cont.
--------4--4--7--7--------|--------4--4--7--7--------|
--------------------------|--------------------------|
--------------------------|--------------------------|
--------------------------|--------------------------|

--------------------------|--------------------------|
--3--3--------2--2--3--3--|--2--2--------------------|          Cont.
--------2--2--------------|--------2--2--4--4--------|
--------------------------|--------------------4--4--|
--------------------------|--------------------------|
--------------------------|--------------------------|

--------------------------|--------------------------|
--7--7--------------5--5--|--7--7--------------5--5--|          Cont.
--------4--4--7--7--------|--------4--4--7--7--------|
--------------------------|--------------------------|
--------------------------|--------------------------|
--------------------------|--------------------------|

--------------------------|------------------------|
--3--3--------2--2--3--3--|--2--2------------------|                    Cont.
--------2--2--------------|--------2--2------------|
--------------------------|--------------4b--------|
--------------------------|------------------------|
--------------------------|------------------------|

--------------------------|----------------------------|
--7--7--------------7--7--|--10--10--------------5--5--|                Cont.
--------4--4--7--7--------|----------4--4--7--7--------|
--------------------------|----------------------------|
--------------------------|----------------------------|
--------------------------|----------------------------|

--------------------------|----------------------------|
--7--7--------------7--7--|--10--10--------------5--5--|                Cont.
--------4--4--7--7--------|----------4--4--7--7--------|
--------------------------|----------------------------|
--------------------------|----------------------------|
--------------------------|----------------------------|

--------------------------|--------------------------|
--7--7--------------5--5--|--7--7--------------5--5--|          Cont.
--------4--4--7--7--------|--------4--4--7--7--------|
--------------------------|--------------------------|
--------------------------|--------------------------|
--------------------------|--------------------------|

--------------------------|---------------------------|
--3--3--------2--2--3--3--|--2---2------2b------------|
--------2--2--------------|----------2--------2~---\--|
--------------------------|---------------------------|
--------------------------|---------------------------|
--------------------------|---------------------------|






Both Guitars
Bridge - 3:05
--------------------------|-------------------------|
--------------------------|-------------------------|           Cont.
--------------------------|-------------------------|
--5--5-----5--5-----5--5--|-----5--5-----5-----0----|
--7--7-----7--7-----7--7--|-----7--7-----7-----2----|
--5--5-----5--5-----5--5--|-----5--5-----5-----0----|

--------------------------|-------------------------|
--------------------------|-------------------------|           Cont.
--------------------------|-------------------------|
--2--2-----2--2-----2--2--|-----2--2-----2----------|
--5--5-----5--5-----5--5--|-----5--5-----5-----7----|
--2--2-----2--2-----2--2--|-----2--2-----2-----4----|

--------------------------|-------------------------|
--------------------------|-------------------------|           Cont.
--------------------------|-------------------------|
--5--5-----5--5-----5--5--|-----5--5-----5-----0----|
--7--7-----7--7-----7--7--|-----7--7-----7-----2----|
--5--5-----5--5-----5--5--|-----5--5-----5-----0----|

--------------------------|
--------------------------|
--------------------------|
--2--2-----2--2-----2--2--|
--5--5-----5--5-----5--5--|
--2--2-----2--2-----2--2--|






1st Guitar – Clean
Bridge – 3:18
-----------------------|----------------------|-----------------------|
-----------------------|----------------------|-----------------------|         Cont.
-------11--------------|--6b--------4---------|-------11--------------|
-------------7----7----|-----------------7----|-------------7----7----|
-----------------------|----------------------|-----------------------|
-----------------------|----------------------|-----------------------|

----------------------|-----------------------|----------------------|
------------5---------|-----------------------|----------------------|          Cont.
--6----7---------7----|-------11--------------|--6b--------4---------|
----------------------|-------------7----7----|-----------------7----|
----------------------|-----------------------|----------------------|
----------------------|-----------------------|----------------------|

-----------------------|----------------------|----------------------|
-----------------------|----------------------|------------3---------|          Cont.
------------11---------|--9---------7---------|-------4---------4----|
--L----7----------7----|-------7---------7----|--5-------------------|
-----------------------|----------------------|----------------------|
-----------------------|----------------------|----------------------|

----------------------|----------------------|----------------------|
------------3---------|------------0---------|------------0---------|           Cont.
-------4---------4----|-------2---------2----|-------2---------2----|
--5-------------------|--2-------------------|--2-------------------|
----------------------|----------------------|----------------------|
----------------------|----------------------|----------------------|

----------------------|----------------------|----------------------|
------------7---------|------------7---------|------------5---------|           Cont.
-------9---------9----|-------9---------9----|-------6---------6----|
--9-------------------|--9-------------------|--7-------------------|
----------------------|----------------------|----------------------|
----------------------|----------------------|----------------------|

----------------------|----------------------|----------------------|
------------5---------|------------3---------|------------3---------|           Cont.
-------6---------6----|-------4---------4----|-------4---------4----|
--7-------------------|--5-------------------|--5-------------------|
----------------------|----------------------|----------------------|
----------------------|----------------------|----------------------|

----------------------|----------------------|----------------------|
------------0---------|------------0---------|------------7---------|           Cont.
-------2---------2----|-------2---------2----|-------9---------9----|
--2-------------------|--2-------------------|--9-------------------|
----------------------|----------------------|----------------------|
----------------------|----------------------|----------------------|

----------------------|-------------------|
------------7---------|--8----------------|
-------9---------9----|--7----------------|
--9-------------------|--5----------------|
----------------------|-------------------|
----------------------|-------------------|





2nd Guitar – Clean
Bridge – 3:31
-----------------------|-----------------------|
--10---------7---------|--10---------7---------|                Cont.
--------7---------7----|--------7---------7----|
-----------------------|-----------------------|
-----------------------|-----------------------|
-----------------------|-----------------------|

-----------------------|----------------------|
-------10----7---------|--8----7---------7----|         Cont.
------------------7----|------------7---------|
-----------------------|----------------------|
-----------------------|----------------------|
-----------------------|----------------------|

-----------------------|-------------------------|
-------10----7---------|--10---------------------|              Cont.
------------------7----|--------11----7----11----|
-----------------------|-------------------------|
-----------------------|-------------------------|
-----------------------|-------------------------|

----------------------|------------------------|
--8----7---------8----|--7---------8----7---\--|                Cont.
------------7---------|-------7----------------|
----------------------|------------------------|
----------------------|------------------------|
----------------------|------------------------|

-----------------------|-----------------------|
--10---------7---------|--10---------7---------|                Cont.
--------7---------7----|--------7---------7----|
-----------------------|-----------------------|
-----------------------|-----------------------|
-----------------------|-----------------------|

-----------------------|----------------------|
-------10----7---------|--8----7---------7----|         Cont.
------------------7----|------------7---------|
-----------------------|----------------------|
-----------------------|----------------------|
-----------------------|----------------------|

-----------------------|-------------------------|
-------10----7---------|--10---------------------|              Cont.
------------------7----|--------11----7----11----|
-----------------------|-------------------------|
-----------------------|-------------------------|
-----------------------|-------------------------|

-------------------|
--8----------------|
--7----------------|
--5----------------|
-------------------|
-------------------|





1st Guitar - Distorted
Chorus – 3:58
--------------------------|--------------------------|
--------------------------|--------------------------|          Cont.
--------------------------|--------------------------|
--------------------------|--------------------------|
--5--5--5--5--5--5--5--5--|--0--0--0--0--0--0--0--0--|
--5--5--5--5--5--5--5--5--|--0--0--0--0--0--0--0--0--|

--------------------------|--------------------------|
--------------------------|--------------------------|          Cont.
--------------------------|--------------------------|
--------------------------|--------------------------|
--7--7--7--7--7--7--7--7--|--2--2--2--2--2--4--4--4--|
--7--7--7--7--7--7--7--7--|--2--2--2--2--2--4--4--4--|

--------------------------|--------------------------|
--------------------------|--------------------------|          Cont.
--------------------------|--------------------------|
--------------------------|--7--7--7--7--7--7--7--7--|
--5--5--5--5--5--5--5--5--|--5--5--5--5--5--5--5--5--|
--5--5--5--5--5--5--5--5--|--------------------------|

--------------------------|--------------------------|
--------------------------|--------------------------|          X2
--------------------------|--------------------------|
--------------------------|--------------------------|
--7--7--7--7--7--7--7--7--|--2--2--2--2--2--4--4--4--|
--7--7--7--7--7--7--7--7--|--2--2--2--2--2--4--4--4--|
        2nd time last bar ring out on 7

  



2nd Guitar – Distorted
Chorus – 3:58
--------------------------|--------------------------|
--7--7--------------5--5--|--7--7--------------5--5--|          Cont.
--------4--4--7--7--------|--------4--4--7--7--------|
--------------------------|--------------------------|
--------------------------|--------------------------|
--------------------------|--------------------------|

--------------------------|--------------------------|
--3--3--------2--2--3--3--|--2--2--------------------|          Cont.
--------2--2--------------|--------2--2--4--4--------|
--------------------------|--------------------4--4--|
--------------------------|--------------------------|
--------------------------|--------------------------|

--------------------------|--------------------------|
--7--7--------------5--5--|--7--7--------------5--5--|          Cont.
--------4--4--7--7--------|--------4--4--7--7--------|
--------------------------|--------------------------|
--------------------------|--------------------------|
--------------------------|--------------------------|

--------------------------|------------------------|
--3--3--------2--2--3--3--|--2--2------------------|                    Cont.
--------2--2--------------|--------2--2------------|
--------------------------|--------------4b--------|
--------------------------|------------------------|
--------------------------|------------------------|

--------------------------|----------------------------|
--7--7--------------7--7--|--10--10--------------5--5--|                Cont.
--------4--4--7--7--------|----------4--4--7--7--------|
--------------------------|----------------------------|
--------------------------|----------------------------|
--------------------------|----------------------------|

--------------------------|----------------------------|
--7--7--------------7--7--|--10--10--------------5--5--|                Cont.
--------4--4--7--7--------|----------4--4--7--7--------|
--------------------------|----------------------------|
--------------------------|----------------------------|
--------------------------|----------------------------|

--------------------------|--------------------------|
--7--7--------------5--5--|--7--7--------------5--5--|          Cont.
--------4--4--7--7--------|--------4--4--7--7--------|
--------------------------|--------------------------|
--------------------------|--------------------------|
--------------------------|--------------------------|

--------------------------|---------------------------|
--3--3--------2--2--3--3--|--2---2------2b------------|
--------2--2--------------|----------2--------2~---\--|
--------------------------|---------------------------|
--------------------------|---------------------------|
--------------------------|---------------------------|





Both Guitars
4:28
-------------------||
-------------------||
-------------------||
-------------------||
--9----------------||
--9----------------||







Tablature Legend
----------------
PM - palm mute
b - bend
L - tied note
x - dead note
g - grace note
(n) - ghost note
> - accentuded note
PH - pitch harmonic
h - hammer on
p - pull off

            
            
Suggest correction
Creating personal tab
Creating personal tab
You can edit any tab online and save it as your Personal.

You can edit, replace or remove any tab part or add personal notes – all changes will be seen only by you.

Personal tabs can be accessed anytime from any device, even offline.
Learn more »
Give kudos to tab author, rate the tab!
1 2 3 4 5
comments
print report bad tab
guest
You may want to rate the tab now too:
select rating
Wanna post a correction for this tab? Suggest correction