Oops, an error
Loading. Please wait.

Lost In The City tab

40 views 1 this week
no commentswrite comment
1 2 3 4 5
3 more votes to show rating
add to favorites
×
Save as Personal and add changes to this tab that will be seen only by you. Learn more ›
×
You can save this tab as Personal to edit and correct it or add notes. All changes will be seen only by you. Learn more »
launch autoscroll
font size
0
reset
how to read this tab
guitar tuner
edit
Autoscroll
slow
fast
+/-
esc
set tempo
stop
Artist: Mal Eastick
Song: Lost In The City
from his 2000 album "Spirit", released on Bluefish Records

Tabbed by Jarrod G

Tempo: ~90 BPM
Timing: 4/4 (shuffle feel)
Key: G Minor

Recommended tone: Stratocaster (neck pickup) > VERY subtle delay @ 300ms > Amplifier with reverb, set
so that the preamp is just starting to break up

[Intro]
(0:00)
   Gm (bass and drums start)
e|-------------------------|-------------------------|-------------------------|-------------------------|
B|-------------------------|-------------------------|-------------------------|-------------------------|
G|-------------------------|-------------------------|-------------------------|-------5b7---5===3-5===--|
D|-------------------------|-------------------------|-------------------------|-----------------------5-|
A|-------------------------|-------------------------|-------------------------|-------------------------|
E|-------------------------|-------------------------|-------------------------|-------------------------|

e|-------------------------|-------------------------|-------------------------|-------------------------|
B|-------------------------|-------------------------|-------------------------|-----6=~~~~~~~~~~~~~~~~~~|
G|-3~~~~~~~~~~~~~~~~~5===--|-------------------------|---------------------3---|-3/7===~~~~~~~~~~~~~~~~~~|
D|-----------------------5~|~~~~~~~~~~~~~~~~~~~~~3---|-3---3---3---3===5-----5-|-------------------------|
A|-------------------------|-----------------------5-|-----------5-------------|-------------------------|
E|-------------------------|-------------------------|-------------------------|-------------------------|

e|-----------------6-------|-8/9\8==p6-8---6---------|-6---6-------------------|-------------------------|
B|~~~~~--8===--8==---8==---|-----------------8~~8==--|-------8===--------------|-------------------------|
G|~~~~~7-----7-------------|-----------------------7-|-----------5/6\5==3------|-------------------------|
D|-------------------------|-------------------------|--------------------5==3-|-5---------3-------------|
A|-------------------------|-------------------------|-------------------------|-----3-5===--5\3=1-------|
E|-------------------------|-------------------------|-------------------------|-------------------3===1-|

[Verse 1]
(0:32)
e|-------------------------|-------------------------|-------------------------|-------------------------|
B|-------------------------|-------------------------|-------------------------|-------------------------|
G|-------------------------|-------------------------|-------------------------|-------5b7---5===3-5===--|
D|-------------3=====5=====|-------------3===--3===5-|-------------3=====5=====|-----------------------5-|
A|-----------5-------------|-----------5-----5-------|-----------5-------------|-------------------------|
E|-3=====------------------|-3=====------------------|-3=====------------------|-3=----------------------|
   Baby's      lost  in the  city                  It  hurts my       troubled mind

e|-------------------------|-------------------------|-------------------------|-------------------------|
B|-------------------------|-------------------------|-------------------------|-------------------------|
G|-3~~~~~~~~~--------------|-------------------------|-------------------------|-------------------------|
D|-------------3=====5=====|-------------3===--3===5-|-------------3=====5=====|-----------3-------------|
A|-----------5-------------|-----------5-----5-------|-----------5-------------|-----3-5===--5\3=1-------|
E|-------------------------|-3=====------------------|-3=====------------------|-3-----------------3===1-|
   Baby's gone and left her      daddy cryin', and she ain't comin' back this time       She's lost in the

[Chorus 1]
(0:53)
e|-----3=------------------|-----3=------------------|-----3=------------------|-------------------------|
B|-----3=------3/5=--5===3=|=====--------------------|-----3=------3/5=--3/5=3=|=======------------------|
G|-------------3/5=--5===3=|=====--------------------|-------------3/5=--3/5=3=|=======------------------|
D|-------------------------|-------------3===--3===5-|-------------------------|-------------3===--3===5-|
A|-------------------------|-----------5-----5-------|-------------------------|-----------5-----5-------|
E|-3===--------------------|-------------------------|-3===--------------------|-------------------------|
   city                          Where's my baby been so long?                       Man, that big windy

e|-----3=------------------|-----3=------------------|-----3=------------------|-----------3---------------|
B|-----3=------3/5=--3/5=3=|=====3=------------------|-----3=------3/5=--3/5=3=|=====----3---6-3-----------|
G|-------------3/5=--3/5=3=|=====--------------------|-------------3/5=--3/5=3=|=====5b7=--------5/6\5-3---|
D|-------------------------|-------------3===--3===5-|-------------------------|-------------------------5-|
A|-------------------------|-----------5-----5-------|-------------------------|---------------------------|
E|-3===--------------------|-------------------------|-3===--------------------|---------------------------|
   city,             yeah          Where the shadows grow so long

[Verse 2]
(1:14)
e|-------------------------|-------------------------|-------------------------|-------------------------|
B|-------------------------|-------------------------|-------------------------|-------------------------|
G|-------------------------|-------------------------|-------------------------|-------5b7~~~~~~~~~5-3---|
D|-------------3=====5=====|-------------3===--3===5-|-------------3=====5=====|-----------------------5-|
A|-----------5-------------|-----------5-----5-------|-----------5-------------|-------------------------|
E|-3=====------------------|-3=====------------------|-3=====------------------|-3-----------------------|
   Seems like      such a long time                    Since my    baby  called my   name              I

e|-------------------------|-------------------------|-------------------------|-------------------------|
B|-------------------------|-------------------------|-------------------------|-------------------------|
G|-------------------------|-------------------------|-------------------------|-------------------------|
D|-------------3=====5=====|-------------3===--3===5-|-------------3=====5=====|-----------3-------------|
A|-----------5-------------|-----------5-----5-------|-----------5-------------|-----3-5===--5\3=1-------|
E|-3=====------------------|-3=====------------------|-3=====------------------|-3-----------------3===1-|
   thought that we had such a good thing goin', now it's all just a cryin' shame         She's lost in the

[Chorus 2]
(1:36)
e|-----3=------------------|-----3=------------------|-----3=------------------|-------------------------|
B|-----3=------3/5=--5===3=|=====--------------------|-----3=------3/5=--3/5=3=|=======------------------|
G|-------------3/5=--5===3=|=====--------------------|-------------3/5=--3/5=3=|=======------------------|
D|-------------------------|-------------3===--3===5-|-------------------------|-------------3===--3===5-|
A|-------------------------|-----------5-----5-------|-------------------------|-----------5-----5-------|
E|-3===--------------------|-------------------------|-3===--------------------|-------------------------|
   city                          Where's that woman been so long?                    Man, that big windy

e|-----3=------------------|-----3=------------------|-----3=------------------|-----------3----------------|
B|-----3=------3/5=--3/5=3=|=====3=------------------|-----3=------3/5=--3/5=3=|=====----3---6-3------------|
G|-------------3/5=--3/5=3=|=====--------------------|-------------3/5=--3/5=3=|=====5b7=--------5b6br5-3---|
D|-------------------------|-------------3===--3===5-|-------------------------|--------------------------5-|
A|-------------------------|-----------5-----5-------|-------------------------|----------------------------|
E|-3===--------------------|-------------------------|-3===--------------------|----------------------------|
   city, yeah                    She's left her daddy all alone

[Solo 1]
(1:57)
e|-------------------------|-----------------------3=|=--------------------------|-------------------------|
B|-------------------------|----------------------x--|-6-3-----------------------|-------------------------|
G|-3-----5-----5b7-------3~|~~~~~~~5===----------x---|-----5/6\5-3---3===5=--3---|-3=====2===--------------|
D|-------------------5-----|-----------5=====3-------|-------------5-----------5-|-------------------------|
A|-------------------------|-------------------------|---------------------------|-----------5~~~~~~~~~~~~~|
E|-------------------------|-------------------------|---------------------------|-------------------------|

e|---------------------------|------------------------3=|=-------------------------|-------------------10-10-|
B|---------------------------|-----------------------3==|=6-3--------------------6-|-6===--6-8---------11-11-|
G|---------------------------|-----------------3----x---|-----5/6\5-3---3-5---3/7--|-----7-----7~~~~---------|
D|-------------------3---5-3-|-5===3---5-3-5===--5------|-------------5-----5------|-------------------------|
A|-5\3-1-3-1---1-3/5=--------|--------------------------|--------------------------|-------------------------|
E|-----------3---------------|--------------------------|--------------------------|-------------------------|

e|-10----10==10-10----10---|-----------------------------|------------------------------------|--------------|
B|-11----11==11-11----11---|-10==11--10-11-10==11--10-11-|-13==11-13==13pb15br13-11--15b18==15|~~~~~14/15-15-|
G|-------------------------|-----------------------------|------------------------------------|--------------|
D|-------------------------|-----------------------------|------------------------------------|--------------|
A|-------------------------|-----------------------------|------------------------------------|--------------|
E|-------------------------|-----------------------------|------------------------------------|--------------|

e|-13-13-13-13-----13-----------15|------15--15==--18==17==18-|-18b20=18-17==18-15----------------|
B|-15-15-15-14/15==14/15-14/15==15|-13/15--15----15-----------|-------------------18--------------|
G|--------------------------------|---------------------------|---------------------17b19-17-15---|
D|--------------------------------|---------------------------|--------------------------------17-|
A|--------------------------------|---------------------------|-----------------------------------|
E|--------------------------------|---------------------------|-----------------------------------|

e|-------------------------|
B|-------------------------|
G|-------------------------|
D|-17\-------3-------------|
A|-----3-5===--5\3=1-------|
E|-------------------3===1-|
                         I've

[Verse 3]
(2:39)
e|-------------------------|-------------------------|-------------------------|-------3=--------------------|
B|-------------------------|-------------------------|-------------------------|------3==6-3-----------------|
G|-------------------------|-------------------------|-------------------------|-----x-------5/6\5-3---3-----|
D|-------------3=====5=====|-------------3===--3===5-|-------------3=====5=====|---------------------5---5---|
A|-----------5-------------|-----------5-----5-------|-----------5-------------|---------------------------5-|
E|-3=====------------------|-3=====------------------|-3=====------------------|-3=--------------------------|
   spent all   my time searchin'                       Tears rollin' down my face

e|-------------------------|-------------------------|-------------------------|-------------------------|
B|-------------------------|-------------------------|-------------------------|-------------------------|
G|-------------------------|-------------------------|-------------------------|-------------------------|
D|-------------3=====5=====|-------------3===--3===5-|-------------3=====5=====|-----------3-------------|
A|-----------5-------------|-----------5-----5-------|-----------5-------------|-----3-5===--5\3=1-------|
E|-3=====------------------|-3=====------------------|-3=====------------------|-3-----------------3===1-|
   Where could my sweet little girl be hidin', now I've got to get her outta this place  She's lost in the

[Chorus 3]
(3:00)
e|-----3=------3/5=--5===--|-----3=------------------|-----3=------------------|-------------------------|
B|-----3=------3/5=--5===3=|=====--------------------|-----3=------3/5=--3/5=3=|=======------------------|
G|-------------3/5=--5===3=|=====--------------------|-------------3/5=--3/5=3=|=======------------------|
D|-------------------------|-------------3===--3===5-|-------------------------|-------------3===--3===5-|
A|-------------------------|-----------5-----5-------|-------------------------|-----------5-----5-------|
E|-3===--------------------|-------------------------|-3===--------------------|-------------------------|
   city                          Where's my baby been so long?                       Man, that big windy

e|-----3=------------------|-----3=------------------|-----3=------------------|-------------------------|
B|-----3=------3/5=--3/5=3=|=====3=------------------|-----3=------3/5=--3/5=3=|=====--------------------|
G|-------------3/5=--3/5=3=|=====--------------------|-------------3/5=--3/5=3=|=====--------------------|
D|-------------------------|-------------3===--3===5-|-------------------------|-----------3-------------|
A|-------------------------|-----------5-----5-------|-------------------------|-----3-5===--5\3=1-------|
E|-3===--------------------|-------------------------|-3===--------------------|-------------------3===1-|
   city, yeah                    She's left her daddy all alone                      My baby's lost in the

e|-----3=------3/5=--------|-----3=------------------|-----3=------------------|-------------------------|
B|-----3=------3/5=--3/5=3=|=====3=------------------|-----3=------3/5=--3/5=3=|=======------------------|
G|-------------3/5=--3/5=3=|=====--------------------|-------------3/5=--3/5=3=|=======------------------|
D|-------------------------|-------------3===--3===5-|-------------------------|-------------3===--3===5-|
A|-------------------------|-----------5-----5-------|-------------------------|-----------5-----5-------|
E|-3===--------------------|-------------------------|-3===--------------------|-------------------------|
   city                            Where's that woman been so long?                  Oh, that big windy

e|-----3=------------------|-----3=------------------|-----3=------------------|-------------3---------------|
B|-----3=------3/5=--3/5=3=|=====3=------------------|-----3=------3/5=--3/5=3=|=======----3---6-------------|
G|-------------3/5=--3/5=3=|=====--------------------|-------------3/5=--3/5=3=|=======5b7=------5b6-5-3-5---|
D|-------------------------|-------------3===--3===5-|-------------------------|---------------------------5-|
A|-------------------------|-----------5-----5-------|-------------------------|-----------------------------|
E|-3===--------------------|-------------------------|-3===--------------------|-----------------------------|
   city                            Where the shadows grow so long

[Solo 2]
(3:43)
e|-------------------------|-------------------------|-------3===------------------|-------------------------|
B|-------------------------|-------------------------|-----3-----6-----------------|-------------------------|
G|-3-----------------------|-------------------------|-5b7=--------5b7br5-3-5b7==-5|b7~~~~~~~~~~~~~~~~~~~~~~~|
D|--5~~~~5~~~5~~~~~--3===5-|-------------------------|-----------------------------|-------------------------|
A|-----------------5-------|-------1-3-4\3-1---1===--|-----------------------------|-------------------------|
E|-------------------------|---1-3-----------3-----3-|-----------------------------|-------------------------|

e|--------------6===5===6==|-8===6===8==8/10=====------|-----------------------|-------------------10-10-|
B|-8---6-8===--------------|---------------------8===8~|~~~~~~~~~~~6-8===6h8=--|-------------------11-11-|
G|---7--------7------------|---------------------------|---------------------7~|~~~~~~~~~~~~~~~~~~~------|
D|-------------------------|---------------------------|-----------------------|-------------------------|
A|-------------------------|---------------------------|-----------------------|-------------------------|
E|-------------------------|---------------------------|-----------------------|-------------------------|

e|-10------------------------|---------------------------|-------------------------------13=--|-------------|
B|-11----10==11-10~~~~-------|---------11--11==10-11==13-|-11==13-13pb15br13-11-13b15====---13|b15~~~~~~6/15|
G|--------------------12==---|-10==12=---12--------------|------------------------------------|-------------|
D|------------------------12-|---------------------------|------------------------------------|-------------|
A|---------------------------|---------------------------|------------------------------------|-------------|
E|---------------------------|---------------------------|------------------------------------|-------------|

e|-15--15--15--18==17-18=-18b20|=====18pb20-18=-18-17==18-17==18|-15---------15---------------------|
B|---15--15--15----------------|--------------------------------|---18-15--15--18-------------------|
G|-----------------------------|--------------------------------|--------17------17b19pbr17-15------|
D|-----------------------------|--------------------------------|-----------------------------17-15-|
A|-----------------------------|--------------------------------|-----------------------------------|
E|-----------------------------|--------------------------------|-----------------------------------|

e|-------------------------|
B|-------------------------|
G|-------------------------|
D|-17\-------3-------------|
A|-----3-5===--5\3=1-------|
E|-------------------3===1-|
       My baby's lost in the

[Chorus 4/Outro]
(4:25)
e|-----3=------------------|-----3=------------------|-----3=------3/5=--------|-------------------------|
B|-----3=------3/5=--3/5=3=|=====3=------------------|-----3=------3/5=--3/5=3=|=====--------------------|
G|-------------3/5=--3/5=3=|=====--------------------|-------------3/5=--3/5=3=|=====--------------------|
D|-------------------------|-------------3===--3===5-|-------------------------|-----------3-------------|
A|-------------------------|-----------5-----5-------|-------------------------|-----3-5===--5\3=1-------|
E|-3===--------------------|-------------------------|-3===--------------------|-------------------3===1-|
   city                          Man, that big windy city                          Yeah, she's lost in the

e|-----3=------------------|-----3=------------------|-----3=------3/5=--------|-------------------------|
B|-----3=------3/5=--3/5=3=|=====3=------------------|-----3=------3/5=--3/5=3=|=====--------------------|
G|-------------3/5=--3/5=3=|=====--------------------|-------------3/5=--3/5=3=|=====--------------------|
D|-------------------------|-------------3===--3===5-|-------------------------|-----------3-------------|
A|-------------------------|-----------5-----5-------|-------------------------|-----3-5===--5\3=1-------|
E|-3===--------------------|-------------------------|-3===--------------------|-------------------3===1-|
   city                          Whoa, that big windy  city                        She's been away for far too

e|-----------3=============|
B|-----------3=============|
G|-----------3=============|
D|-----------5=============|
A|-----------5=============|
E|-----------3=============|
         long!

************************************

| x    Dead note
| h    Hammer-on
| p    Pull-off
| /    Slide up
| \    Slide down
| =    Hold note
| ~    Hold note with vibrato
| b    Bend note
| br   Release bend
| pb   Pre-bend
| pbr  Release pre-bend

************************************

            
            
Suggest correction
Creating personal tab
Creating personal tab
You can edit any tab online and save it as your Personal.

You can edit, replace or remove any tab part or add personal notes – all changes will be seen only by you.

Personal tabs can be accessed anytime from any device, even offline.
Learn more »
Give kudos to tab author, rate the tab!
1 2 3 4 5
comments
print report bad tab
guest
You may want to rate the tab now too:
select rating
Wanna post a correction for this tab? Suggest correction