Oops, an error
Loading. Please wait.
We have an official The Dragonborn Comes tab made by UG professional guitarists. Check out the tab »
×

The Dragonborn Comes tab

version 3
version 3

Whole song

  • Most versions from ultimate-guitar.com are easy-pl... Show more
  • Its more accurate than the others and more detailed.

Interactive

by Malukah
1,552 views 87 this week
2 commentsread comments
1 2 3 4 5
x 8
add to favorites
×
Save as Personal and add changes to this tab that will be seen only by you. Learn more ›
×
You can save this tab as Personal to edit and correct it or add notes. All changes will be seen only by you. Learn more »
launch autoscroll
font size
0
reset
how to read this tab
guitar tuner
edit
Autoscroll
slow
fast
+/-
esc
set tempo
stop
Author
DRAGONBORN COMES by Malukah                                                           Tabbed by @majklgreen


[INTRO]
E|----------------------------------|
B|----------------------------------| (Repeat few times)
G|----------------------------------| 
D|-------1--2-4-4-1-----------------|   
A|---4-4------------4-2-4-----------|

E|---------------------------|
B|---------------------------|
G|1-1-1----------------------|
D|---------1-2-4--4-1-2--4---|
A|-------4-----------------4-|
E|---------------------------|


[MORROWIND]

e|--------------------------------|------------------------------------0-----------------------------|
B|------------------0-------------|------------------0-2---0-4-2---2-4----4--2--0--------------------|
G|------------1---1---------------|------------1---1-------------------------------2--1--------1-----|
D|--1-2---2-4---------4---2-1-----|--1-2---2-4-------------------------------------------4---2---4---|
A|4---------------------------4---|4-----------------------------------------------------------------|
E|--------------------------------|------------------------------------------------------------------|


[SONS OF SKYRIM]

e|-----------------------------------------------------------------|
B|-----------------------------------------------------------------|
G|-----------------------------------------------------------------|
D|2-1-2---2-1-2--1-2-4--2--1--------------------------1--2--1------|
A|----------------------------4---4-2-4---4-2-4---2-4----------4---|
E|-----------------------------------------------------------------|

e|-------------------------------------------------------------------|
B|-------------------------------------------------------------------|
G|-------------------------------------------------------------------|
D|2-2-2--2--2--2---1-2-4--2--1--------------------------1--2--1------|
A|------------------------------4---4-2-4---4-2-4---2-4----------4---|
E|-------------------------------------------------------------------|

            
            
Suggest correction
Creating personal tab
Creating personal tab
You can edit any tab online and save it as your Personal.

You can edit, replace or remove any tab part or add personal notes – all changes will be seen only by you.

Personal tabs can be accessed anytime from any device, even offline.
Learn more »
comments
print report bad tab
2 comments total.
0 reply
jimmyaweaver2.0 10 Jul 17, 2017 11:40 PM

I feel like end should be d1d2a2a4. instead of d1d2d1d4

0 reply
joemed71 31 Sep 30, 2017 03:30 AM

Do more dragonborn comes, it's too short ;-;

guest
You may want to rate the tab now too:
select rating
Wanna post a correction for this tab? Suggest correction