Oops, an error
Loading. Please wait.

The Majority tab

version 1
version 1

Whole song

by Mammal
2,450 views 1 this week
3 commentsread comments
1 2 3 4 5
1 last vote to show rating
add to favorites
×
Save as Personal and add changes to this tab that will be seen only by you. Learn more ›
×
You can save this tab as Personal to edit and correct it or add notes. All changes will be seen only by you. Learn more »
launch autoscroll
font size
0
reset
how to read this tab
guitar tuner
edit
Autoscroll
slow
fast
+/-
esc
set tempo
stop
Author
drop c-cgcfad

wohoo,  the first whole song i learned by ear

intro
d|-------------------------|\
a|-------------------------||
f|------xx-7/5/7-xxxxxx-10-| \4 times
c|------xx-7/5/7-xxxxxx-10-| /
g|------xx-5/3/5-xxxxxx- 8-||
c|-3h5p0-------------------|/

d|-------------------------|\
a|-------------------------||
f|------xx-7/5/7-xxxxxx-10-| \4 times
c|-3h5p0xx-7/5/7-xxxxxx-10-| /
g|-3h5p0xx-5/3/5-xxxxxx- 8-||
c|-3h5p0-------------------|/

verse
d|-------------------|\         d|--------------------|
a|-------------------||         a|--------------------|
f|-------------------| \3 times f|--------------------|
c|-3-5-3-0-0-0-0-0303| /        c|-3-5-3-0-0-0-0-0-3-3|
g|-3-5-3-0-0-0-0-0303||         g|-3-5-3-0-0-0-0-0-3-3|
c|-3-5-3-0-0-0-0-0303|/         c|-3-5-3-0-0-0-0-0-3-3| do all this untill end of verse

chorus
d|-----------------|\
a|-----------------||
f|xxxx-7-10--------| \4 times
c|xxxx-7-10--------| /
g|xxxx-5- 8-5-5-8-5||
c|----------0-0---0|/

bridge
d|------------------|\
a|------------------||
f|------------------||4 times
c|-6-5-3-0-0-3-3-4-5||
g|-6-5-3-0-0-3-3-4-5||
c|-6-5-3-0-0-3-3-4-5|/

d|--------------------------|
a|--------------------------|
f|--------------------------|
c|-0-------0-------0-------0|
g|-0-------0-------0-------0|
c|-0-------0-------0-------0|

(alternative intro)
intro
d|-------------------------|\
a|---------------palm m----||
f|------xx-7/5/7-777777-10-| \4 times
c|-3h5p0xx-7/5/7-777777-10-| /
g|-3h5p0xx-5/3/5-555555- 8-||
c|-3h5p0-------------------|/

palm m=palm mute

            
            
Suggest correction
Creating personal tab
Creating personal tab
You can edit any tab online and save it as your Personal.

You can edit, replace or remove any tab part or add personal notes – all changes will be seen only by you.

Personal tabs can be accessed anytime from any device, even offline.
Learn more »
Give kudos to tab author, rate the tab!
1 2 3 4 5
comments
print report bad tab
3 comments total.
0 reply
oibigears 323 Jun 27, 2009 01:56 AM

i loooorve this tab, its sooo cool, and oibigears is hot

0 reply
JCrompton 79 Apr 29, 2010 10:23 AM

I like this song, and this is a great tab :)
But I like to play the intro like this:
d|----------------------------------|
a|----------------------------------|
f|-------------xx-7/5/7---------10/-|
c|-------------xx-x/x/x----------x/-|
g|-------------xx-5/3/5-0-00000--8/-|
c|--3h5p3p0-0-----------0-00000-----|
PM-------|
Good Job :)

0 reply
JCrompton 79 Apr 29, 2010 10:24 AM

^^**The open strings are supposed to be the palm muted bit**^^

guest
You may want to rate the tab now too:
select rating
Wanna post a correction for this tab? Suggest correction