Oops, an error
Loading. Please wait.

Kau Ilhamku tab

by Man Bai
56,557 views 54 this week
no commentswrite comment
1 2 3 4 5
x 8
add to favorites
×
Save as Personal and add changes to this tab that will be seen only by you. Learn more ›
×
You can save this tab as Personal to edit and correct it or add notes. All changes will be seen only by you. Learn more »
launch autoscroll
font size
0
reset
how to read this tab
guitar tuner
edit
Autoscroll
slow
fast
+/-
esc
set tempo
stop
Author
KAU ILHAMKU – MAN BAI

Tabbed by: dashulic
Email: dashulic@hotmail.com
Tuning: Standard

[Intro]
    Dm                    G                           
e|--------1-----0--1---------------------------------|
B|-----------3--------3--------------3h4-3-----------|
G|-----2-----------------2------------------4-3h4-4--|
D|--0-----------------------------5------------------|
A|-----------------------------5---------------------|
E|--------------------------3------------------------|

    Am                   B
e|------------------------/7-------7--7--9--11-------|
B|--------------5-----5---/7-------7--7--7--7--------|
G|-----------5-----5------/8-------------------------|
D|--------7---------------/9-------------------------|
A|-----7------------------/9-------------------------|
E|--5---------------------/7-------------------------|

[Verse 1]
    C         C/B       Am         G
e|----------------------------------------------|
B|--------1----------1----------1----------1----|
G|--------0----------0----------2----------0----|
D|-----2----------0----------2------------------|
A|--3--------3-2--------2-0--------0----0-------|
E|-----------------------------------3----------|

      F                   G
e|----------------------------------------------|
B|----------1----------1----------3----------3--|
G|----------2----------2----------4----------4—-|
D|----------------------------------------------|
A|-------3----------3----------5----------5-----|
E|--3-1--------1-1--------1-3--------3-3--------|

    C         C/B       Am         G
e|----------------------------------------------|
B|--------1----------1----------1----------1----|
G|--------0----------0----------2----------0----|
D|-----2----------0----------2------------------|
A|--3--------3-2--------2-0--------0----0-------|
E|-----------------------------------3----------|

      F         G         C          C/B
e|----------------------------------------------|
B|----------1----------3----------1----------1--|
G|----------2----------4----------0—-------0----|
D|-----------------------------2---------2------|
A|-------3----------5-------3--------3-2--------|
E|--3-1--------1-3--------3---------------------|

[Verse 2]
    C       C/B      Am       G        F                G
e|------x--------x--------x--------x--------x-------x--------x--------x--|
B|----1-x------1-x------1-x------0-x------1-x-----1-x------3-x------3-x--|
G|----0-x------0-x------2-x------0-x------2-x-----2-x------4-x------4-x--|
D|----2-x------0-x------2-x------0-x------3-x-----3-x------5-x------5-x--|
A|--3---x--3-2---x--2-0---x--0-----x--------x-------x--------x--------x--|
E|------x--------x--------x----3---x--3-1---x--1-1--x--1-3---x--3-3---x--|

    C       C/B      Am       G        F                G
e|-----x-------x-------x-------x-------x-------x-------x-------x-------x|
B|---1-x-----1-x-----1-x-----0-x-----1-x-----3-x-----3-x-----1-x-----1-x|
G|---0-x-----0-x-----2-x-----0-x-----2-x-----4-x-----4-x-----0-x-----0-x|
D|---2-x-----0-x-----2-x-----0-x-----3-x-----5-x-----5-x-----2-x-----2-x|
A|-3---x-3-2---x-2-0---x-0-----x-------x-------x-------x---3---x-3-3---x|
E|-----x-------x-------x---3---x-3-1---x-1-3---x-3-3---x-3-----x-------x|


[Pre-Chorus]
    C       C/B      Am       G        F                G
e|------x--------x--------x--------x--------x-------x--------x--------x--|
B|----1-x------1-x------1-x------0-x------1-x-----1-x------3-x------3-x--|
G|----0-x------0-x------2-x------0-x------2-x-----2-x------4-x------4-x--|
D|----2-x------0-x------2-x------0-x------3-x-----3-x------5-x------5-x--|
A|--3---x--3-2---x--2-0---x--0-----x--------x-------x--------x--------x--|
E|------x--------x--------x----3---x--3-1---x--1-1--x--1-3---x--3-3---x--|
    C       C/B      Am       G        F                G
e|------x--------x--------x--------x--------x-------x--------x--------x--|
B|----1-x------1-x------1-x------0-x------1-x-----1-x------3-x------3-x--|
G|----0-x------0-x------2-x------0-x------2-x-----2-x------4-x------4-x--|
D|----2-x------0-x------2-x------0-x------3-x-----3-x------5-x------5-x--|
A|--3---x--3-2---x--2-0---x--0-----x--------x-------x--------x--------x--|
E|------x--------x--------x----3---x--3-1---x--1-1--x--1-3---x--3-3---x--|

[Chorus]
    C       C/B      Am       G       
e|--------x--------x--------x--------x-|
B|------1-x------1-x------1-x------0-x-|
G|------0-x------0-x------2-x------0-x-|
D|------2-x------0-x------2-x------0-x-|
A|--0-3---x--3-2---x--2-0---x--0-----x-|
E|--------x--------x--------x----3---x-|
      F                                 G
e|--------x--------x--------x--------x--------x--------x--------x--------x--|
B|------1-x------1-x------1-x------1-x------3-x------3-x------3-x------3-x--|
G|------2-x------2-x------2-x------2-x------4-x------4-x------4-x------4-x--|
D|------3-x------3-x------3—x------3-x------5-x------5-x------5-x------5-x--|
A|--------x--------x--------x--------x--------x--------x--------x--------x--|
E|--3-1---x--1-1---x--1-1---x--1-1---x--1-3---x--3-3---x--3-3---x--3-3---x--|

    C       C/B      Am       G       
e|--------x--------x--------x--------x-|
B|------1-x------1-x------1-x------0-x-|
G|------0-x------0-x------2-x------0-x-|
D|------2-x------0-x------2-x------0-x-|
A|--0-3---x--3-2---x--2-0---x--0-----x-|
E|--------x--------x--------x----3---x-|
      F                                 G
e|--------x--------x--------x--------x--------x--------x----3---------|
B|------1-x------1-x------1-x------1-x------3-x------3-x----3---------|
G|------2-x------2-x------2-x------2-x------4-x------4-x----4---------|
D|------3-x------3-x------3—x------3-x------5-x------5-x----5---------|
A|--------x--------x--------x--------x--------x--------x----5---------|
E|--3-1---x--1-1---x--1-1---x--1-1---x--1-3---x--3-3---x--3-3---------|

[Solo]
(Guitar 1:)
e|--------------------------------------------------------------------|
B|----5--6--8--6--5--3-------3h5-------------3-5-6--5-6h5-------------|
G|----5--7--9--7--5--4---4h5-----2-----2-4-5---------------7-5-7h9-9--|
D|-----------------------------------5--------------------------------|
A|-3------------------------------------------------------------------|
E|--------------------------------------------------------------------|

e|--8---10--12--13--15---12-13-10-12----10--------------------|
B|--8--------------------------------13----12-13-10-12--------|
G|--9--------------------------------------------------12-10--|
D|------------------------------------------------------------|
A|------------------------------------------------------------|
E|------------------------------------------------------------|

e|------------------------------------------------------------15-------------|
B|------------------------12----------13----------15----------13-------------|
G|-10\9-10-12-14--12--10--12-12-12-12----12----12----12----12----12----12----|
D|------------------------12----------------12----------12----------12-------|
A|---------------------------------------------------------------------------|
E|---------------------------------------------------------------------------|

(Guitar 2 (the verse riff)repeat as many times as needed)
    C       C/B      Am       G        F                G
e|------x--------x--------x--------x--------x-------x--------x--------x--|
B|----1-x------1-x------1-x------0-x------1-x-----1-x------3-x------3-x--|
G|----0-x------0-x------2-x------0-x------2-x-----2-x------4-x------4-x--|
D|----2-x------0-x------2-x------0-x------3-x-----3-x------5-x------5-x--|
A|--3---x--3-2---x--2-0---x--0-----x--------x-------x--------x--------x--|
E|------x--------x--------x----3---x--3-1---x--1-1--x--1-3---x--3-3---x--|
    C       C/B      Am       G        F                G
e|------x--------x--------x--------x--------x-------x--------x--------x--|
B|----1-x------1-x------1-x------0-x------1-x-----1-x------3-x------3-x--|
G|----0-x------0-x------2-x------0-x------2-x-----2-x------4-x------4-x--|
D|----2-x------0-x------2-x------0-x------3-x-----3-x------5-x------5-x--|
A|--3---x--3-2---x--2-0---x--0-----x--------x-------x--------x--------x--|
E|------x--------x--------x----3---x--3-1---x--1-1--x--1-3---x--3-3---x--| 
(Continue to Pre-chorus and chorus. End on C.)

[Verse 1]
    C          C/B
Beribu bintang di-langit
Am       G 
Kini menghilang
F            G 
Meraba aku dalam kelam 
    C          C/B
Rembulan mengambang 
Am       G 
Kini makin suram 
F       G       C    C/B
Pudar ilhamku tanpa arah 

[Verse 2]
   C         C/B
Sedetik wajahmu muncul 
Am      G
Dalam diam
F            G 
Ada kerdipan ada sinar
   C        C/B    Am     G
Itukah bintang atau rembulan
F      G        C
Terima kasih kuucapkan 

[Pre-Chorus]
C     C/B      Am     G        F                G
  Izinkan kumencuri bayangan wajahmu 
C     C/B      Am     G        F                G
  Izinkan ku mencuri khayalan denganmu 

[Chorus]
           C    C/B     Am      G
Maafkanlah oh... 
       F
Andai lagu ini
                       G 
Mengganggu ruangan hidupmu
           C    C/B     Am      G
Kau senyumlah oh... 
     F
Sekadar memori 
               G 
Kita di arena ini 
       C    C/B Am  G
Kau ilhamku 
       F        G
Kau ilhamku...

[Solo]

[Pre-Chorus]
C     C/B      Am     G        F                G
  Izinkan kumencuri bayangan wajahmu 
C     C/B      Am     G        F                G
  Izinkan ku mencuri khayalan denganmu 

[Chorus]
           C    C/B     Am      G
Maafkanlah oh... 
       F
Andai lagu ini
                       G 
Mengganggu ruangan hidupmu
           C    C/B     Am      G
Kau senyumlah oh... 
     F
Sekadar memori 
               G 
Kita di arena ini 
       C    C/B Am  G
Kau ilhamku 
       F        G       C
Kau ilhamku...

************************************

| /  slide up
| \  slide down
| h  hammer-on
| p  pull-off
| ~  vibrato
| +  harmonic
| x  Mute note

************************************

            
            
Suggest correction
Creating personal tab
Creating personal tab
You can edit any tab online and save it as your Personal.

You can edit, replace or remove any tab part or add personal notes – all changes will be seen only by you.

Personal tabs can be accessed anytime from any device, even offline.
Learn more »
comments
print report bad tab
guest
You may want to rate the tab now too:
select rating
Wanna post a correction for this tab? Suggest correction