Oops, an error
Loading. Please wait.

Cry Baby tab

version 3
version 3

Whole song

1,305 views 1 this week
no commentswrite comment
1 2 3 4 5
x 3
add to favorites
×
Save as Personal and add changes to this tab that will be seen only by you. Learn more ›
×
You can save this tab as Personal to edit and correct it or add notes. All changes will be seen only by you. Learn more »
launch autoscroll
font size
0
reset
how to read this tab
guitar tuner
edit
Autoscroll
slow
fast
+/-
esc
set tempo
stop
Author
Cry Baby - Man Overboard

Really simple song from their awesome EP, rate + comment if I've made any mistakes but 
I'm pretty confident this sounds right.
Thanks
DR~

--------------------------------------------------------------------------------------

Intro Riff:
e|------------4------------4----------------4-----------4--------------------|
B|---------6-----6------6-----6----------6-----6-----6-----6-----------------|
G|-----6------------6------------6----5-----------5--------------------------|
D|---------------------------------------------------------------------------|
A|---------------------------------------------------------------------------|
E|---------------------------------------------------------------------------|

e|-----------4------------4--------------|
B|--------6-----6------6-----6-----------|
G|----3------------3------------3--------|
D|---------------------------------------|
A|---------------------------------------|
E|---------------------------------------|

e|--------------------------------------| 
B|-------------------1--1-----2--2--4---| (Play this for the
G|-1--1---3---3--1---------1------------|  first three times)
D|--------------------------------------|
A|--------------------------------------|
E|--------------------------------------|

e|------------------------------------------------------------| 
B|-------------------1--1-----2--2---2-2---2-2---1-1---1-1----|  (On the fourth
G|-1--1---3---3--1---------1-------1-----1-----1-----1-----1--|  time, play this)
D|------------------------------------------------------------|
A|------------------------------------------------------------|
E|------------------------------------------------------------|


(1:00) Chords:
e|---------------------------------------|
B|---------------------------------------|
G|---6-6-6-6--5-5-5-5--------------------| (Listen out for the
D|---6-6-6-6--6-6-6-6--------------------|  strumming pattern)
A|---4-4-4-4--3-3-3-3--------------------|
E|---------------------------------------|


(1:26) Solo:
e|---9--11--13--11--9--|-------9----9----11-----|
B|-9-------------------|---9--------------------|
G|---------------------|------------------------|
D|---------------X7----|------------------------|
A|---------------------|------------------------|
E|---------------------|------------------------|

e|---9--11--13--11--9--|----9--11----13----11----9-----|
B|-9-------------------|--9----------------------------|
G|---------------------|-------------------------------|
D|---------------X6----|-------------------------------|
A|---------------------|-------------------------------|
E|---------------------|-------------------------------|


(1:45) Chords:
e|--------------------------------------|
B|--------------------------------------|
G|---6-6-6--5-5-5-5--6~-----------------| (Listen out for the
D|---6-6-6--6-6-6-6--6~-----------------|  strumming pattern
A|---4-4-4--3-3-3-3--4~-----------------|   and alterations)
E|--------------------------------------|


(2:05) Ascension:
e|--------------------------------------|
B|----------1-----1--2-----2--4---------|
G|-3--1--3-----1--------1---------------|
D|--------------------------------------|
A|--------------------------------------|
E|--------------------------------------|

(2:10) Outro Riff:
e|------------4------------4----------------4-----------4--------------------|
B|---------6-----6------6-----6----------6-----6-----6-----6-----------------|
G|-(6)-6------------6------------6----5-----------5--------------------------|
D|---------------------------------------------------------------------------|
A|---------------------------------------------------------------------------|
E|---------------------------------------------------------------------------|

e|-----------4------------4--------------|
B|--------6-----6------6-----6-----------|
G|----3------------3------------3--------|
D|---------------------------------------|
A|---------------------------------------|
E|---------------------------------------|

e|---------------------------|---|---|
B|----------1--1-----2--2----|-1-|-4-|
G|-----1--1-------1--------1-|---|---|
D|---------------------------|---|---|    
A|---------------------------|---|---|
E|---------------------------|---|---|
                               ^   ^----- Second time playing through, end on (and finish)
                               |
                               |---- First time playing through, end on

            
            
Suggest correction
Creating personal tab
Creating personal tab
You can edit any tab online and save it as your Personal.

You can edit, replace or remove any tab part or add personal notes – all changes will be seen only by you.

Personal tabs can be accessed anytime from any device, even offline.
Learn more »
Give kudos to tab author, rate the tab!
1 2 3 4 5
comments
print report bad tab
guest
You may want to rate the tab now too:
select rating
Wanna post a correction for this tab? Suggest correction