Oops, an error
Loading. Please wait.

Dreaming tab

version 2
version 2

Whole song

542 views 1 this week
no commentswrite comment
1 2 3 4 5
2 more votes to show rating
add to favorites
×
Save as Personal and add changes to this tab that will be seen only by you. Learn more ›
×
You can save this tab as Personal to edit and correct it or add notes. All changes will be seen only by you. Learn more »
launch autoscroll
font size
0
reset
how to read this tab
guitar tuner
edit
Autoscroll
slow
fast
+/-
esc
set tempo
stop
------------------------------------------------------------------------------
                        DREAMING - MAN OVERBOARD
------------------------------------------------------------------------------

Tabbed by : Boris Paskhaver (bigbadb)
Email     : bp771@nyu.edu

Tuning :    Eb (Half Step Down)
            Eb, Ab, Db, Gb, Bb, eb

Key :       Ab Major

VERSE ONE (0:01)
  
   (x4) GUITAR ONE
eb|------------------------|
Bb|------------------------|
Gb|-------7-7--9-9--11-11--|
Db|--7-7--7-7--9-9--11-11--|
Ab|--7-7--5-5--7-7---9--9--|
Eb|--5-5-------------------|
  1  Took the same route
  2  Even though I woke
  3  Dreaming of something
  4  Could become my

   (x4) GUITAR TWO **
eb|------------------------|
Bb|------------------------|
Gb|-------7-7--------------|
Db|--7-7--7-7--2-2--4-4----|
Ab|--7-7--5-5--2-2--4-4----|
Eb|--5-5-------0-0--2-2----|

** Guitar Two plays same chords, different position on the neck.
If playing solo, see what sounds better to you.

CHORUS (0:13, 0:54)

   (x2)
eb|----------------------------------------------------------------------|
Bb|----------------------------------------------------------------------|
Gb|------------------------------------7-7-7-7-7-7-7-7--9-9-9-9-9-9-9-9--|
Db|--4-4-4-4-4-4-4-4--7-7-7-7-7-7-7-7--7-7-7-7-7-7-7-7--9-9-9-9-9-9-9-9--|
Ab|--4-4-4-4-4-4-4-4--7-7-7-7-7-7-7-7--5-5-5-5-5-5-5-5--7-7-7-7-7-7-7-7--|
Eb|--2-2-2-2-2-2-2-2--5-5-5-5-5-5-5-5------------------------------------|
  1    She could  be   come my         everything or     whisper in my
  2    ear, across     highway,        highway to        catch you

   (x2)
eb|----------------------------------------------------------------------|
Bb|----------------------------------------------------------------------|
Gb|-------------------7-7-7-7-7-7-7-7-------------------9-9-9-9-9-9-9-9--|
Db|--4-4-4-4-4-4-4-4--7-7-7-7-7-7-7-7--7-7-7-7-7-7-7-7--9-9-9-9-9-9-9-9--|
Ab|--4-4-4-4-4-4-4-4--5-5-5-5-5-5-5-5--7-7-7-7-7-7-7-7--7-7-7-7-7-7-7-7--|
Eb|--2-2-2-2-2-2-2-2-------------------5-5-5-5-5-5-5-5-------------------|
  1    catch you       be all that     I could honest    ly ask 
  2    for                     from    you

VERSE TWO (0:36)
  
   (x6)
eb|------------------------|
Bb|------------------------|
Gb|-------7-7--9-9--11-11--|
Db|--7-7--7-7--9-9--11-11--|
Ab|--7-7--5-5--7-7---9--9--|
Eb|--5-5-------------------|
  1                   And
  2  
  3  Something about the
  4  8:30 and in her
  5  Could be a sign
  6  At me

   (x6) GUITAR TWO
eb|------------------------|
Bb|------------------------|
Gb|-------7-7--------------|
Db|--7-7--7-7--2-2--4-4----|
Ab|--7-7--5-5--2-2--4-2----|
Eb|--5-5-------0-0--2-2----|

BRIDGE (1:18):

   (x1)
eb|----------------------|
Bb|----------------------|
Gb|-------------------7--|
Db|--4----------------7--|
Ab|--4--  LET RING  --5--|
Eb|--2-------------------|

   (x3)
eb|--------------------------------------------------------------------|
Bb|--------------------------------------------------------------------|
Gb|---------------------------------------------------7----------------|
Db|--4-4-4-4-4-4-4-4-4-4-4-4-4-4-4-4-4-4-4-4-4-4-4-4--7--  LET RING  --|
Ab|---------------------------------------------------5----------------|
Eb|--------------------------------------------------------------------|
     P.M--------------------------------------------|
  1
  2  And I don't know how many times that I would     dreaming
  3  The way her hair falls on top of her shoulders   screaming

OUTRO CHORUS (1:43)

   (x4)
eb|----------------------------------------------------------------------|
Bb|----------------------------------------------------------------------|
Gb|-------------------7-7-7-7-7-7-7-7-------------------9-9-9-9-9-9-9-9--|
Db|--4-4-4-4-4-4-4-4--7-7-7-7-7-7-7-7--7-7-7-7-7-7-7-7--9-9-9-9-9-9-9-9--|
Ab|--4-4-4-4-4-4-4-4--5-5-5-5-5-5-5-5--7-7-7-7-7-7-7-7--7-7-7-7-7-7-7-7--|
Eb|--2-2-2-2-2-2-2-2-------------------5-5-5-5-5-5-5-5-------------------|
  1   And I don't     times that I      ask her if I'm   dreaming
  2   The way her      on top of her    makes me feel    screaming
  3   And I don't     times that I      ask her if I'm   dreaming
  4   The way her      on top of her    makes me feel    screaming

END ON (2:07)

eb|-------------------|
Bb|-------------------|
Gb|-------------------|
Db|--7----------------|
Ab|--7--  LET RING  --|
Eb|--5----------------|

            
            
Suggest correction
Creating personal tab
Creating personal tab
You can edit any tab online and save it as your Personal.

You can edit, replace or remove any tab part or add personal notes – all changes will be seen only by you.

Personal tabs can be accessed anytime from any device, even offline.
Learn more »
Give kudos to tab author, rate the tab!
1 2 3 4 5
comments
print report bad tab
guest
You may want to rate the tab now too:
select rating
Wanna post a correction for this tab? Suggest correction