Oops, an error
Loading. Please wait.

I Like You tab

version 2
version 2

Whole song

1,602 views 1 this week
1 commentread comment
1 2 3 4 5
x 5
add to favorites
×
Save as Personal and add changes to this tab that will be seen only by you. Learn more ›
×
You can save this tab as Personal to edit and correct it or add notes. All changes will be seen only by you. Learn more »
launch autoscroll
font size
0
reset
how to read this tab
guitar tuner
edit
Autoscroll
slow
fast
+/-
esc
set tempo
stop
I felt that the other I Like You tab wasn’t 100% correct so I wanted to make a little 
bit better one

This song is obviously a Half Step Down (Eb Ab Db Gb Bb eb)

Intro:

Drums for 2 measures (sounds like Dance, Dance except with a hi-hat)

Verse 1:

|---3---------3----------------------|
|-----3---------0--------------------|
|-----------------------5-----5----7-|
|-------------------------5-----4--7-|  x2
|---------------------3-----2------5-|
|-3---------0------------------------|

Pre-Chorus:

|-----------------------------------------------------------------------|
|-----------------------------------------------------------------------|
|-----------------------------------------------------------------------|
|-------------------5555555555555555------------------------------------|
|-22222222222222222-3333333333333333-5555555555555555--55-555-555-555-5-|
|-00000000000000000------------------3333333333333333--22-222-222-222-2-|
P.M................  ...............  ...............  .. ... ... ... .

|--------------------------------------------------------|
|--------------------------------------------------------|
|------------------------------------------5*----7--7--7-|
|-------------------5555555555555555-7*----5*----7--7--7-|
|-22222222222222222-3333333333333333-7*----3*----5--5--5-|
|-00000000000000000------------------5*------------------|
P.M................  ...............

Verse 2:

Bass for a measure, and then...

|---3---------3----------------------|
|-----3---------0--------------------|
|-----------------------5-----5----7-|
|-------------------------5-----4--7-|
|---------------------3-----2------5-|
|-3---------0------------------------|

Pre-Chorus 2:

|----------------------------------------------------------------------|
|----------------------------------------------------------------------|
|-------------------5555555555555555------------------7777777777777777-|
|-22222222222222222-5555555555555555-5555555555555555-7777777777777777-|
|-22222222222222222-3333333333333333-5555555555555555-5555555555555555-|
|-00000000000000000------------------3333333333333333------------------|

|-----------------------------------------------------------|
|-----------------------------------------------------------|
|-------------------5555555555555555-------5*----7--7--7--7-|
|-22222222222222222-5555555555555555-7*----5*----7--7--7--7-|
|-22222222222222222-3333333333333333-7*----3*----5--5--5--5-|
|-00000000000000000------------------5*---------------------|

Chorus:

|---------------------------------------------------------------------|
|---------------------------------------------------------------------|
|------------------5555555555555555------------------7777777777777777-|
|-5555555555555555-5555555555555555-5555555555555555-7777777777777777-|
|-5555555555555555-3333333333333333-5555555555555555-5555555555555555-|
|-3333333333333333------------------3333333333333333------------------|

|---------------------------------------------------------------|
|---------------------------------------------------------------|
|------------------5555555555555555------------------7--7--7--7-|
|-2222222222222222-5555555555555555-5555555555555555-7--7--7--7-|  I Like You!!!
|-2222222222222222-3333333333333333-5555555555555555-5--5--5--5-|
|-0000000000000000------------------3333333333333333------------|

Solo:

|-----------------------------------------------------|
|-----------------------------------------------------|
|-----------------------------------------------------|
|-12-12-12-9-9h10p9-9--12-12-12-9-9-9-10--9--9h10p9-7-|
|-----------------------------------------------------|
|-----------------------------------------------------|

|-------------------------------7-8-7----7------10h7---10h7---10h7-|
|-----8/10-8-7------8/10br-8-10-------10---10--------8------8------|
|---7-------------7------------------------------------------------|
|-9-------------9--------------------------------------------------|
|------------------------------------------------------------------|
|------------------------------------------------------------------|

And the other guitar plays...

|----------------------------------------------------------------------|
|----------------------------------------------------------------------|
|-----------------------------------55555555-55555555-7777777777777777-|
|-5555555555555555-2222222222222222-55555555-44444444-7777777777777777-|  x2
|-5555555555555555-2222222222222222-33333333-22222222-5555555555555555-|
|-3333333333333333-0000000000000000------------------------------------|

Chorus:

|---------------------------------------------------------------------|
|---------------------------------------------------------------------|
|------------------5555555555555555------------------7777777777777777-|
|-5555555555555555-5555555555555555-5555555555555555-7777777777777777-|
|-5555555555555555-3333333333333333-5555555555555555-5555555555555555-|
|-3333333333333333------------------3333333333333333------------------|

|----------------------------------------------------------------|
|----------------------------------------------------------------|
|------------------555555555555-xxxx------------------7--7--7--7-|
|-2222222222222222-555555555555-xxxx-5555555555555555-7--7--7--7-|  I Like You!!!
|-2222222222222222-333333333333-xxxx-5555555555555555-5--5--5--5-|
|-0000000000000000-------------------3333333333333333------------|

End on G:

|---|
|---|
|---|
|-5-|
|-5-|
|-3-|

            
            
Suggest correction
Creating personal tab
Creating personal tab
You can edit any tab online and save it as your Personal.

You can edit, replace or remove any tab part or add personal notes – all changes will be seen only by you.

Personal tabs can be accessed anytime from any device, even offline.
Learn more »
comments
print report bad tab
1 comment total.
+1 reply
DomRusky 499 Jan 28, 2014 01:46 PM, edited on January 29 2014, 08:20 am

|----------------------------------------|
|----------------------------------------|
|-12-12----------12---------5-----5----7-|
|-12----12----------12--------5-----4--7-| x2
|-10----------------------3-----2------5-|
|-------------12-------------------------|

Spot on other than this is slightly wrong... correction below.

|----------------------------------------|
|-----------------8----------------------|
|-12-12---------------------5-----5----7-|
|-12----12----------9---------5-----4--7-| x2
|-10----------------------3-----2------5-|
|--------------0-------------------------|

guest
Wanna post a correction for this tab? Suggest correction