Oops, an error
Loading. Please wait.

Real Talk album bass

version 1
version 1

Album

Whole song

Interactive

91 views 1 this week
no commentswrite comment
1 2 3 4 5
3 more votes to show rating
add to favorites
×
Save as Personal and add changes to this tab that will be seen only by you. Learn more ›
×
You can save this tab as Personal to edit and correct it or add notes. All changes will be seen only by you. Learn more »
launch autoscroll
font size
0
reset
guitar tuner
edit
Autoscroll
slow
fast
+/-
esc
set tempo
stop
Author
Difficulty
-------------------------------------------------------------------------------
                             REAL TALK (ALBUM) – Man Overboard
-------------------------------------------------------------------------------
Tabbed by: cesare_moon
E-mail: 

Artist: Man Overboard
Album: Real Talk
Year: 2010


| /  slide up
| \  slide down
| h  hammer-on
| p  pull-off
| ~  vibrato
| +  harmonic
| x  Mute note


Tuning: EADG (Or half-step down)

Tracklist:

1.      Real Talk
2.      World Favourite
3.      Fantasy Girl
4.      Parting Gift
5.      Darkness, Everybody
6.      She’s Got Her Own Man Now
7.      Al Sharpton
8.      Montrose
9.      FM Dial Style
10.     I Like You
11.     Septemberism
12.     Sidekick

1. REAL TALK

Verse – 00.01 – 00.20

G|---------------------------------------------------------------------------|
D|---------------------------------------------------------------------------|
A|-0-0-0-0-0-0-0-0-4-4-4-4-4-4-4-4-0-0-0-0-0-0-0-0-4-4-4-4-2-2-2-2-----------|
E|---------------------------------------------------------------------------|

G|---------------------------------------------------------------------------|
D|---------------------------------------------------------------------------|
A|-0-0-0-0-0-0-0-0-4-4-4-4-4-4-4-4-2-2-2-2-2-2-2-2-2-2-2-2-2-2-2-2-----------|
E|---------------------------------------------------------------------------|

G|---------------------------------------------------------------------------|
D|---------------------------------------------------------------------------|
A|-4-4-4-4-2-2-2-2-0-0-0-0-0-0-0-0-4-4-4-4-2-2-2-2-0-0-0-0-0-0-0-0-----------|
E|---------------------------------------------------------------------------|

Chorus – 00.20 – 00.39

G|---------------------------------------------------------------------------|
D|---------------------------------------------------------------------------|
A|-0-0-0-0-0-0-0-0-2-2-2-2-2-2-2-2-4-4-4-4-4-4-4-4-4-4-4-4-4-4-4-4-----------|
E|---------------------------------------------------------------------------|

G|---------------------------------------------------------------------------|
D|---------------------------------------------------------------------------|
A|-0-0-0-0-0-0-0-0-2-2-2-2-2-2-2-2-4-4-4-4-4-4-4-4-4-4-4-4-4-4—2x—2x---------|
E|---------------------------------------------------------------------------|

G|---------------------------------------------------------------------------|
D|---------------------------------------------------------------------------|
A|-4-4-4-4-2-2-2-2-0-0-0-0-0-0-0-0-4-4-4-4-2-2-2-2-0-0-0-0-0-0-0x-0x---------|
E|---------------------------------------------------------------------------|

Verse – 00.39 – 00.58

G|---------------------------------------------------------------------------|
D|---------------------------------------------------------------------------|
A|-0-0-0-0-0-0-0-0-4-4-4-4-4-4-4-4-0-0-0-0-0-0-0-0-4-4-4-4-2-2-2-2-----------|
E|---------------------------------------------------------------------------|

G|---------------------------------------------------------------------------|
D|---------------------------------------------------------------------------|
A|-0-0-0-0-0-0-0-0-4-4-4-4-4-4-4-4-2-2-2-2-2-2-2-2-2-2-2-2-2-2-2-2-----------|
E|---------------------------------------------------------------------------|

G|---------------------------------------------------------------------------|
D|---------------------------------------------------------------------------|
A|-4-4-4-4-2-2-2-2-0-0-0-0-0-0-0-0-4-4-4-4-2-2-2-2-0-0-0-0-0-0-0-0-----------|
E|---------------------------------------------------------------------------|

Chorus – 00.58 – 01.17 

G|---------------------------------------------------------------------------|
D|---------------------------------------------------------------------------|
A|-0-0-0-0-0-0-0-0-2-2-2-2-2-2-2-2-4-4-4-4-4-4-4-4-4-4-4-4-4-4-4-4-----------|
E|---------------------------------------------------------------------------|

G|---------------------------------------------------------------------------|
D|---------------------------------------------------------------------------|
A|-0-0-0-0-0-0-0-0-2-2-2-2-2-2-2-2-4-4-4-4-4-4-4-4-4-4-4-4-4-4—2x—2x---------|
E|---------------------------------------------------------------------------|

G|---------------------------------------------------------------------------|
D|---------------------------------------------------------------------------|
A|-4-4-4-4-2-2-2-2-0-0-0-0-0-0-0-0-4-4-4-4-2-2-2-2-0-0-0-0-0-0-0-0-----------|
E|---------------------------------------------------------------------------|

Bridge (Rest for first bar. Come in at…) – 01.23 – 01.29

G|---------------------------------------------------------------------------|
D|---------------------------------------------------------------------------|
A|---------------0-0-0-0-0-0-0-0---------------0x----2x----------------------|
E|-2-2-2-2-2-2-2-----------------2-2-2-2-2-2-2-------------------------------|

Outro – 01.29 – 01.43

G|---------------------------------------------------------------------------|
D|---------------------------------------------------------------------------|
A|-4-4-4-4-2-2-2-2-0-0-0-0-0-0-0-0-4-4-4-4-2-2-2-2-0-0-0-0-0-0-0-0-----------|
E|---------------------------------------------------------------------------|

G|---------------------------------------------------------------------------|
D|---------------------------------------------------------------------------|
A|-4-4-4-4-2-2-2-2-0-0-0-0-0-0-0-0-4-4-4-4-2-2-2-2-2-2-2-2-2-2-2-0x----------|
E|---------------------------------------------------------------------------|

2. WORLD FAVOURITE 

Verse – 00.09 – 00.24

G|---------------------------------------------------------------------------|
D|---------------------------------------------------------------------------|
A|---------------------------------------------------------------------------|
E|-4-4-4-4-4-4-4-4-0-0-0-0-0-0-0-0-------------------------------------------|

G|---------------------------------------------------------------------------|
D|---------------------------------------------------------------------------|
A|-4-4---4------------------4-4---4-----------------4-4---4------------------|
E|---------0-0---0-2-2--------------0-0---0-2-2-------------0-0---0-2-2------|

G|---------------------------------------------------------------------------|
D|---------------------------------------------------------------------------|
A|---------------------------------------------------------------------------|
E|-4-4-4-4-4-4-4-4-0-0-0-0-0-0-0-0-------------------------------------------|

Pre-chorus – 00.24 – 00.36

G|---------------------------------------------------------------------------|
D|---------------------------------------------------------------------------|
A|--------------4~--------------------------------------7-7-7-7---7x---------|
E|-1~------------------2—3--4~-----------0~----------------------------------|

Chorus – 00.36 – 1.01

G|---------------------------------------------------------------------------|
D|---------------------------------------------------------------------------|
A|-4-4-4-4-4-4-4-4-4-4-4-4-4-4-4-4-------------------------------------------|
E|---------------------------------4-4-4-4-4-4-4-4-4-4-4-4-4-4-4-4-----------|


G|---------------------------------------------------------------------------|
D|---------------------------------------------------------------------------|
A|-4-4-4-4-4-4-4-4-4-4-4-4-4-4-4-4-------------------------------------------|
E|---------------------------------2-2-2-2-2-2-2-2-0-0-0-0-0-0-0-4-----------|

G|---------------------------------------------------------------------------|
D|---------------------------------------------------------------------------|
A|-4-4-4-----4-4-4-----4-4-4-----4-4-4---------------------------------------|
E|----------------------------------------2-2-2-----2-2-2-----2-2-2x---4~----| x2

Verse – 01.01 – 01.25 

G|---------------------------------------------------------------------------|
D|---------------------------------------------------------------------------|
A|-4-4---4------------------4-4---4-----------------4-4---4------------------|
E|---------0-0---0-2-2--------------0-0---0-2-2-------------0-0---0-2-2------|

G|---------------------------------------------------------------------------|
D|---------------------------------------------------------------------------|
A|---------------------------------------------------------------------------|
E|-4-4-4-4-4-4-4-4-0-0-0-0-0-0-0-0-------------------------------------------|

G|---------------------------------------------------------------------------|
D|---------------------------------------------------------------------------|
A|-4-4---4------------------4-4---4-----------------4-4---4------------------|
E|---------0-0---0-2-2--------------0-0---0-2-2-------------0-0---0-2-2------|

G|---------------------------------------------------------------------------|
D|---------------------------------------------------------------------------|
A|---------------------------------------------------------------------------|
E|-4-4-4-4-4-4-4-4-0-0-0-0-0-0-0-0-------------------------------------------|

Pre-chorus – 01.25 – 01.37

G|---------------------------------------------------------------------------|
D|---------------------------------------------------------------------------|
A|---------------------------------4-4-4-4-4-4-4-4-4-4-4-4-4-4-4-4-----------|
E|-2-2-2-2-2-2-2-2-2-2-2-2-2-2-2-2-------------------------------------------|

G|---------------------------------------------------------------------------|
D|---------------------------------------------------------------------------|
A|---------------------------------------------------------------------------|
E|-4-4-4-4-4-4-4-4-4-4-4-4-4-4-4-4-0-0-0-0-0-0-0-0----0x---------------------|

Chorus – 01.37 – 02.01

G|---------------------------------------------------------------------------|
D|---------------------------------------------------------------------------|
A|-4-4-4-4-4-4-4-4-4-4-4-4-4-4-4-4-------------------------------------------|
E|---------------------------------4-4-4-4-4-4-4-4-4-4-4-4-4-4-4-4-----------|


G|---------------------------------------------------------------------------|
D|---------------------------------------------------------------------------|
A|-4-4-4-4-4-4-4-4-4-4-4-4-4-4-4-4-------------------------------------------|
E|---------------------------------2-2-2-2-2-2-2-2-0-0-0-0-0-0-0-4-----------|

G|---------------------------------------------------------------------------|
D|---------------------------------------------------------------------------|
A|-4-4-4-----4-4-4-----4-4-4-----4-4-4---------------------------------------|
E|----------------------------------------2-2-2-----2-2-2-----2-2-2x---4~----| x2

Bridge – 02.01 – 02.14 

G|---------------------------------------------------------------------------|
D|---------------------------------------------------------------------------|
A|-4-4-4-4-4-4-4-4-4-4-4-4-4-4-4-4-------------------------3-3-3-3-----------|
E|---------------------------------0-0-0-0-0-0-0-0-2-2-2-2-------------------|

G|---------------------------------------------------------------------------|
D|---------------------------------------------------------------------------|
A|-4-4-4-4-4-4-4-4-4-4-4-4-4-4-4-4-------------------------3-3x--------------|
E|---------------------------------0-0-0-0-0-0-0-0-2-2x----------------------|

Chorus – 02.14 – End. 

G|---------------------------------------------------------------------------|
D|---------------------------------------------------------------------------|
A|-4-4-4-4-4-4-4-4-4-4-4-4-4-4-4-4-------------------------------------------|
E|---------------------------------4-4-4-4-4-4-4-4-4-4-4-4-4-4-4-4-----------|


G|---------------------------------------------------------------------------|
D|---------------------------------------------------------------------------|
A|-4-4-4-4-4-4-4-4-4-4-4-4-4-4-4-4-------------------------------------------|
E|---------------------------------2-2-2-2-2-2-2-2-0-0-0-0-0-0-0-0-----------| x5

G|---------------------------------------------------------------------------|
D|---------------------------------------------------------------------------|
A|---------4~----------------------------------------------------------------|
E|-0-2x----------------------------------------------------------------------|

3. FANTASY GIRL 

Intro – 00.01 – 00.15

G|---------------------------------------------------------------------------|
D|---------------------------------------------------------------------------|
A|---------------------------------------------------------------------------|
E|-8-8-8-8-8-8-8-8-4-4-4-4-4-4-4-4-7-7-7-7-7-7-7-7-7-7-7-7-7-7-7-7-----------| x2

Verse – 00.28 – 00.41

G|---------------------------------------------------------------------------|
D|---------------------------------------------------------------------------|
A|---------------------------------------------------------------------------|
E|-8-8-8-8-8-8-8-8-4-4-4-4-4-4-4-4-7-7-7-7-7-7-7-7-7-7-7-7-7-7-7-7-----------| x2

Pre-chorus – 00.41 – 00.54

G|---------------------------------------------------------------------------|
D|---------------------------------------------------------------------------|
A|----------4-----------------------------------4----------------------------|
E|-8---------------7--------7-------8-8-8------------7-----------------------|

Chorus – 00.54 – 01.21

G|---------------------------------------------------------------------------|
D|---------------------------------------------------------------------------|
A|---------------------------------------------------------------------------|
E|-8-8-8-8-8-8-8-8-0-0-0-0-0-0-0-0-4-4-4-4-4-4-4-7-7-7-7-7-7-7-7-------------| x4

Intro – 01.21 – 01.35

G|---------------------------------------------------------------------------|
D|---------------------------------------------------------------------------|
A|---------------------------------------------------------------------------|
E|-8-8-8-8-8-8-8-8-4-4-4-4-4-4-4-4-7-7-7-7-7-7-7-7-7-7-7-7-7-7-7-7-----------| x2

Verse – 01.48 – 02.01 

G|---------------------------------------------------------------------------|
D|---------------------------------------------------------------------------|
A|---------------------------------------------------------------------------|
E|-8-8-8-8-8-8-8-8-4-4-4-4-4-4-4-4-7-7-7-7-7-7-7-7-7-7-7-7-7-7-7-7-----------| x2

Pre-chorus – 02.01 – 02.14

G|---------------------------------------------------------------------------|
D|---------------------------------------------------------------------------|
A|----------4-----------------------------------4----------------------------|
E|-8---------------7--------7-------8-8-8------------7-----------------------|

Chorus – 02.14 – 02.41

G|---------------------------------------------------------------------------|
D|---------------------------------------------------------------------------|
A|---------------------------------------------------------------------------|
E|-8-8-8-8-8-8-8-8-0-0-0-0-0-0-0-0-4-4-4-4-4-4-4-7-7-7-7-7-7-7-7-------------| x4

Outro – 02.41 – End.

G|---------------------------------------------------------------------------|
D|---------------------------------------------------------------------------|
A|---------------------------------------------------------------------------|
E|-8-8-8-8-8-8-8-8-4-4-4-4-4-4-4-4-7-7-7-7-7-7-7-7-7-7-7-7-7-7-7-7-----------| x2

4. PARTING GIFT 

Verse – 00.02 – 00.24 

G|---------------------------------------------------------------------------|
D|---------------------------------------------------------------------------|
A|-2-2-2-2-2-2-2-2-----------------------------------------------------------|
E|-----------------1-1-1-1-1-1-1-1-0-0-0-0-0-0-0-0-0-0-0-0-0-0-0-0-----------|

G|---------------------------------------------------------------------------|
D|---------------------------------------------------------------------------|
A|-2-2-2-2-2-2-2-2-----------------------------------------------------------|
E|-----------------1-1-1-1-1-1-1-1-3-3-3-3-3-3-3-3-0-0-0-0-0-0-0-0-----------|

G|---------------------------------------------------------------------------|
D|---------------------------------------------------------------------------|
A|-2-2-2-2-2-2-2-2-----------------------------------------------------------|
E|-----------------1-1-1-1-1-1-1-1-0-0-0-0-0-0-0-0-0-0-0-0-0-0-0-0-----------|

G|---------------------------------------------------------------------------|
D|---------------------------------------------------------------------------|
A|-2-2-2-2-2-2-2-2-----------------------------------------------------------|
E|-----------------1-1-1-1-1-1-1-1-3-3-3-3-3-3-3-3-0-0-0-0-0-0-0-0-----------|

Chorus – 00.24 – 00.46

G|---------------------------------------------------------------------------|
D|---------------------------------------------------------------------------|
A|---------------------------------3-3-3-3-3-3-3-3-3-3-3-3-3-3-3-3-----------|
E|-0-0-0-0-0-0-0-0-0-0-0-0-0-0-0-0-------------------------------------------|

G|---------------------------------------------------------------------------|
D|---------------------------------------------------------------------------|
A|---------------------------------------------------------------------------|
E|-0-0-0-0-0-0-0-0-0-0-0-0-0-0-0-0-3-3-3-3-3-3-3-3-3-3-3-3-3-3-3-3-----------|

G|---------------------------------------------------------------------------|
D|---------------------------------------------------------------------------|
A|---------------------------------3-3-3-3-3-3-3-3-3-3-3-3-3-3-3-3-----------|
E|-0-0-0-0-0-0-0-0-0-0-0-0-0-0-0-0-------------------------------------------|

G|---------------------------------------------------------------------------|
D|---------------------------------------------------------------------------|
A|-2/5-------------------------------------2-2x------------------------------|
E|------0~-------------------------0-0-0-0-----------------------------------|

Verse – 00.46 – 01.08

G|---------------------------------------------------------------------------|
D|---------------------------------------------------------------------------|
A|-2-2-2-2-2-2-2-2-----------------------------------------------------------|
E|-----------------1-1-1-1-1-1-1-1-0-0-0-0-0-0-0-0-0-0-0-0-0-0-0-0-----------|

G|---------------------------------------------------------------------------|
D|---------------------------------------------------------------------------|
A|-2-2-2-2-2-2-2-2-----------------------------------------------------------|
E|-----------------1-1-1-1-1-1-1-1-3-3-3-3-3-3-3-3-0-0-0-0-0-0-0-0-----------|

G|---------------------------------------------------------------------------|
D|---------------------------------------------------------------------------|
A|-2-2-2-2-2-2-2-2-----------------------------------------------------------|
E|-----------------1-1-1-1-1-1-1-1-0-0-0-0-0-0-0-0-0-0-0-0-0-0-0-0-----------|

G|---------------------------------------------------------------------------|
D|---------------------------------------------------------------------------|
A|-2-2-2-2-2-2-2-2-----------------------------------------------------------|
E|-----------------1-1-1-1-1-1-1-1-3-3-3-3-3-3-3-3-0-0-0-0-0-0-0-0-----------|

Chorus – 01.08 – 01.29 

G|---------------------------------------------------------------------------|
D|---------------------------------------------------------------------------|
A|---------------------------------3-3-3-3-3-3-3-3-3-3-3-3-3-3-3-3-----------|
E|-0-0-0-0-0-0-0-0-0-0-0-0-0-0-0-0-------------------------------------------|

G|---------------------------------------------------------------------------|
D|---------------------------------------------------------------------------|
A|---------------------------------------------------------------------------|
E|-0-0-0-0-0-0-0-0-0-0-0-0-0-0-0-0-3-3-3-3-3-3-3-3-3-3-3-3-3-3-3-3-----------|

G|---------------------------------------------------------------------------|
D|---------------------------------------------------------------------------|
A|---------------------------------3-3-3-3-3-3-3-3-3-3-3-3-3-3-3-3-----------|
E|-0-0-0-0-0-0-0-0-0-0-0-0-0-0-0-0-------------------------------------------|

G|---------------------------------------------------------------------------|
D|---------------------------------------------------------------------------|
A|-2/5-------------------------------------2-2x------------------------------|
E|------0~-------------------------0-0-0-0-----------------------------------|

Rest for Bridge

Outro – 01.51 – End.

G|---------------------------------------------------------------------------|
D|---------------------------------------------------------------------------|
A|---------------------------------------------------------------------------|
E|-3-3-3-3-1-1-1-1-0-0-0---2-2-----3-3-3-3-1-1-1-1-0-0-0---2-2---------------| x4

G|---------------------------------------------------------------------------|
D|---------------------------------------------------------------------------|
A|---------------------------------------------------------------------------|
E|-3-3-3-3-1-1-1-1-0-0-0-0-2-2-2-2-3-3-3-3-1-1-1-1-0-0-0-0-2-2-2-2-----------| x2

5. DARKNESS, EVERYBODY

Verse – 00.15 – 00.30

G|---------------------------------------------------------------------------|
D|---------------------------------------------------------------------------|
A|-----------------4-4-4-4-4-4-4-4-----------------4-4-4-4-4-4-4-4-----------|
E|-4-4-4-4-4-4-4-4-----------------1-1-1-1-1-1-1-1---------------------------| x3

G|---------------------------------------------------------------------------|
D|---------------------------------------------------------------------------|
A|-----------------4-4-----------------------------4x------------------------|
E|-4-4-----------------------------1-1---------------------------------------|

Chorus – 00.30 – 00.45

G|---------------------------------------------------------------------------|
D|---------------------------------------------------------------------------|
A|-----------------4-4-4-4-4-4-4-4-2-2-2-2-2-2-2-2-4-4-4-4-4-4-4-4-----------|
E|-4-4-4-4-4-4-4-4-----------------------------------------------------------| x4


Verse – 00.59 – 01.14

G|---------------------------------------------------------------------------|
D|---------------------------------------------------------------------------|
A|-----------------4-4-4-4-4-4-4-4-----------------4-4-4-4-4-4-4-4-----------|
E|-4-4-4-4-4-4-4-4-----------------1-1-1-1-1-1-1-1---------------------------| x3

G|---------------------------------------------------------------------------|
D|---------------------------------------------------------------------------|
A|-----------------4-4-----------------------------4x------------------------|
E|-4-4-----------------------------1-1---------------------------------------|

Chorus – 01.14 – 01.44

G|---------------------------------------------------------------------------|
D|---------------------------------------------------------------------------|
A|-----------------4-4-4-4-4-4-4-4-2-2-2-2-2-2-2-2-4-4-4-4-4-4-4-4-----------|
E|-4-4-4-4-4-4-4-4-----------------------------------------------------------| x6


Bridge – 01.44 – 02.18

G|---------------------------------------------------------------------------|
D|---------------------------------------------------------------------------|
A|----------------------4-4-4-4-4-4-4-4--------------------------------------|
E|-4-3--1-1-1-1-1-1-1-1-----------------4-4-4-4-4-4-4-4-0-0-0-0-0-0-0-0------|

G|---------------------------------------------------------------------------|
D|---------------------------------------------------------------------------|
A|-----------------4-4-4-4-4-4-4-4-------------------------------------------|
E|-1-1-1-1-1-1-1-1-----------------4-4-4-4-4-4-4-0-0-0-0-0-0-0-0-------------| x2

G|---------------------------------------------------------------------------|
D|---------------------------------------------------------------------------|
A|-----------------4-4-------------------------------------------------------|
E|-1-1-----------------------------4-----------------------------------------|

Rest for first bar of Chorus

Chorus – 02.33 – End.

G|---------------------------------------------------------------------------|
D|---------------------------------------------------------------------------|
A|-----------------4-4-4-4-4-4-4-4-2-2-2-2-2-2-2-2-4-4-4-4-4-4-4-4-----------|
E|-4-4-4-4-4-4-4-4-------------------------------------------------(0)-------| x3

6. SHE’S GOT HER OWN MAN NOW

Verse – 01.01 – 01.31

G|---------------------------------------------------------------------------|
D|---------------------------------------------------------------------------|
A|---------------------------------------------------------------------------|
E|-0-0-0-0-0-0-0-0-4-4-4-4-4-4-4-4-2-2-2-2-2-2-2-2-2-2-2-2-2-2-2-2-----------| x3

G|---------------------------------------------------------------------------|
D|---------------------------------------------------------------------------|
A|---------------------------------------------------------------------------|
E|-0-0-0-0-0-0-0-0-4-4-4-4-4-4-4-4-2-----------------------------------------|

Chorus – 01.31 – 02.02

G|---------------------------------------------------------------------------|
D|---------------------------------------------------------------------------|
A|---------------------------------------------------------------------------|
E|-0-0-0-0-0-0-0-0-7-7-7-7-7-7-7-7-2-2-2-2-2-2-2-2-2-2-2-2-2-2-2-2-----------|

G|---------------------------------------------------------------------------|
D|---------------------------------------------------------------------------|
A|---------------------------------------------------------------------------|
E|-0-0-0-0-0-0-0-0-4-4-4-4-4-4-4-4-2-2-2-2-2-2-2-2-2-2-2-2-2-2-2-2-----------| x2

G|---------------------------------------------------------------------------|
D|---------------------------------------------------------------------------|
A|---------------------------------------------------------------------------|
E|-0-0-0-0-0-0-0-0-7-7-7-7-7-7-7-7-2-2-2-2-2-2-2-2-2-2-2-2-2-2-2-2-4~--------|

Bridge – 02.04 – 02.35

G|---------------------------------------------------------------------------|
D|---------------------------------------------------------------------------|
A|-----------------4-4-4-4-4-4-4-4-------------------------------------------|
E|-0-0-0-0-0-0-0-0-----------------4-4-4-4-4-4-4-4-4-4-4-4----7--------------| x3

G|---------------------------------------------------------------------------|
D|---------------------------------------------------------------------------|
A|-----------------4-4-4-4-4-4-4-4-------------------------------------------|
E|-0-0-0-0-0-0-0-0-----------------4--------------4--------------------------|

Chorus – 02.35 – 03.04

G|---------------------------------------------------------------------------|
D|---------------------------------------------------------------------------|
A|---------------------------------------------------------------------------|
E|-0-0-0-0-0-0-0-0-7-7-7-7-7-7-7-7-2-2-2-2-2-2-2-2-2-2-2-2-2-2-2-2-----------|

G|---------------------------------------------------------------------------|
D|---------------------------------------------------------------------------|
A|---------------------------------------------------------------------------|
E|-0-0-0-0-0-0-0-0-4-4-4-4-4-4-4-4-2-2-2-2-2-2-2-2-2-2-2-2-2-2-2-2-----------| x2

G|---------------------------------------------------------------------------|
D|---------------------------------------------------------------------------|
A|---------------------------------------------------------------------------|
E|-0-0-0-0-0-0-0-0-7-7-7-7-7-7-7-7-2-2-2-2-2-2-2-2-2-2-2-2-2-2-2-2-4~--------|

Outro – 03.04 – End. 

G|---------------------------------------------------------------------------|
D|---------------------------------------------------------------------------|
A|---------------------------------------------------------------------------|
E|-0-0-0-0-0-0-0-0-4-4-4-4-4-4-4-4-2-2-2-2-2-2-2-2-2-2-2-2-2-2-2-2-----------|

G|---------------------------------------------------------------------------|
D|---------------------------------------------------------------------------|
A|---------------------------------------------------------------------------|
E|-0-0-0-0-0-0-0-0-4-4-4-4-4-4-4-4-2---2---2---------------------------------|

7. AL SHARPTON

Intro – 0.02 – 00.21

G|---------------------------------------------------------------------------|
D|---------------------------------------------------------------------------|
A|---------------------------------------------------------------------------|
E|-4-4-4-4-4-4-4-4-7-7-7-7-7-7-7-7-2-2-2-2-2-2-2-2-4-4-4-4-4-4-4-4-----------| x4

Verse – 00.21 – 00.39

G|---------------------------------------------------------------------------|
D|---------------------------------------------------------------------------|
A|-4-----------------------------3-------------------------------------------|
E|------------------4--------------------------------------------------------|

G|---------------------------------------------------------------------------|
D|---------------------------------------------------------------------------|
A|-2-2-2-2-2-2-2-2-2-2-2-2-2-2-2-2-------------------------------------------|
E|---------------------------------2-2-2-2-2-2-2-2-2-2-2-2-2-2-2-2-----------|

G|---------------------------------------------------------------------------|
D|---------------------------------------------------------------------------|
A|-4-----------------------------3-------------------------------------------|
E|------------------4--------------------------------------------------------|

G|---------------------------------------------------------------------------|
D|---------------------------------------------------------------------------|
A|-2-2-2-2-2-2-2-2-2-2-2-2-2-2-2-2-------------------------------------------|
E|---------------------------------2-2-2-2-2-2-2-2-2-2-2-2-2-2--1------------|

Pre-Chorus – 00.39 – 00.58

G|---------------------------------------------------------------------------|
D|---------------------------------------------------------------------------|
A|---------------------------------2-----------------------------------------|
E|-0-------------------2------------------------4----------------------------| x2

G|---------------------------------------------------------------------------|
D|---------------------------------------------------------------------------|
A|---------------------------------------------------------------------------|
E|-0-0-0-0-0-0-0-0-0-0-0-0-0-0-0-0-2-2-2-2-2-2-2-2-2-2-2-2-2-2-2-2-----------|

G|---------------------------------------------------------------------------|
D|---------------------------------------------------------------------------|
A|-2-2-2-2-2-2-2-2-2-2-2-2-2-2-2-2-------------------------------------------|
E|---------------------------------4-4-4-4-4-4-4-4-4-4-4-4-4-4-4-4x----------|

Chorus – 00.58 – 01.17

G|---------------------------------------------------------------------------|
D|---------------------------------------------------------------------------|
A|---------------------------------------------------------------------------|
E|-4-4-4-4-4-4-4-4-7-7-7-7-7-7-7-7-2-2-2-2-2-2-2-2-4-4-4-4-4-4-4-4-----------| x4

Verse – 01.17 – 01.36

G|---------------------------------------------------------------------------|
D|---------------------------------------------------------------------------|
A|-4-----------------------------3-3---3--3----------------------------------|
E|------------------4--------------------------------------------------------|

G|---------------------------------------------------------------------------|
D|---------------------------------------------------------------------------|
A|-2-2-2-2-2-2-2-2-2-2-2-2-2-2-2-2-------------------------------------------|
E|---------------------------------2-2-2-2-2-2-2-2-2-2-2-2-2-2-2-2-----------|

G|---------------------------------------------------------------------------|
D|---------------------------------------------------------------------------|
A|-4-----------------------------3---3---3-----------------------------------|
E|------------------4--------------------------------------------------------|

G|---------------------------------------------------------------------------|
D|---------------------------------------------------------------------------|
A|-2-2-2-2-2-2-2-2-2-2-2-2-2-2-2-2-------------------------------------------|
E|---------------------------------2-2-2-2-2-2-2-2-2-2-2-2-2-2--1------------|

Pre-Chorus – 01.36 – 01.54

G|---------------------------------------------------------------------------|
D|---------------------------------------------------------------------------|
A|---------------------------------2-----------------------------------------|
E|-0-------------------2------------------------4----------------------------| x2

G|---------------------------------------------------------------------------|
D|---------------------------------------------------------------------------|
A|---------------------------------------------------------------------------|
E|-0-0-0-0-0-0-0-0-0-0-0-0-0-0-0-0-2-2-2-2-2-2-2-2-2-2-2-2-2-2-2-2-----------|

G|---------------------------------------------------------------------------|
D|---------------------------------------------------------------------------|
A|-2-2-2-2-2-2-2-2-2-2-2-2-2-2-2-2-------------------------------------------|
E|---------------------------------4-4-4-4-4-4-4-4x--------------------------|

Bridge – 01.54 – 02.13

G|---------------------------------------------------------------------------|
D|---------------------------------------------------------------------------|
A|-4-----------------------------3-------------------------------------------|
E|------------------4--------------------------------------------------------| x4

Chorus – 02.13 – End. 

G|---------------------------------------------------------------------------|
D|---------------------------------------------------------------------------|
A|---------------------------------------------------------------------------|
E|-4-4-4-4-4-4-4-4-7-7-7-7-7-7-7-7-2-2-2-2-2-2-2-2-4-4-4-4-4-4-4-4-----------| x4

8. MONTROSE

Verse (Begin with slide up on E string) – 00.07 – 00.36

G|---------------------------------------------------------------------------|
D|---------------------------------------------------------------------------|
A|---------------------------------3-3-3-3-3-3-3-3---------------------------|
E|-0-0-0-0-0-0-0-0-0-0-0-0-0-0-0-0-----------------3-3-3-3-3-3-3-3-----------| x2

G|---------------------------------------------------------------------------|
D|---------------------------------------------------------------------------|
A|---------------------------------3-3-3-3-3-3-3-3---------------------------|
E|-0~----------------------------------------------3-3-3-3-3-3-3-3-----------| x2

Chorus – 00.36 – 00.51

G|---------------------------------------------------------------------------|
D|---------------------------------------------------------------------------|
A|---------------------------------3-3-3-3-3-3-3-3---------------------------|
E|-0~-----1-1---1-1--------------------------------3-3-3-3-1-1-1-1-----------| 

G|---------------------------------------------------------------------------|
D|---------------------------------------------------------------------------|
A|---------------------------------3-3-3-3-3-3-3-3---------------------------|
E|-0~-----4------0-------------4-------------------3-3-3-3-1-1-1-1-----------| 

Verse – 00.51 – 01.21

G|---------------------------------------------------------------------------|
D|---------------------------------------------------------------------------|
A|---------------------------------3-3-3-3-3-3-3-3---------------------------|
E|-0-0-0-0-0-0-0-0-0-0-0-0-0-0-0-0-----------------3-3-3-3-3-3-3-3-----------| x2

G|---------------------------------------------------------------------------|
D|---------------------------------------------------------------------------|
A|---------------------------------3-3-3-3-3-3-3-3---------------------------|
E|-0-0-0-0-0-0-0-0-0-0-0-0x------------------------3-3-3-3-3-3-3-3-----------| x2

Chorus – 01.21 – 01.35 

G|---------------------------------------------------------------------------|
D|---------------------------------------------------------------------------|
A|---------------------------------3-3-3-3-3-3-3-3---------------------------|
E|-0~-----1-1---1-1--------------------------------3-3-3-3-1-1-1-1-----------| 

G|---------------------------------------------------------------------------|
D|---------------------------------------------------------------------------|
A|---------------------------------3-3-3-3-3-3-3-3---------------------------|
E|-0~-----4------0-------------4-------------------3-3-3-3-1-1-1-1-----------| 

Bridge – 01.35 – 02.05

G|---------------------------------------------------------------------------|
D|---------------------------------------------------------------------------|
A|-----------------3-3-3-3-3-3-3-3-------------------------------------------|
E|-0-0-0-0-0-0-0-0-----------------3-3-3-3-3-3-3-3-1-1-1-1-1-1-1-1-----------| x2

G|---------------------------------------------------------------------------|
D|---------------------------------------------------------------------------|
A|-----------------3------3------3-------------------------------------------|
E|-0-----0-------0-----------------3--3--3---3---3-1--1---1---1---1----------| x2

Chorus – 02.12 – End. 

G|---------------------------------------------------------------------------|
D|---------------------------------------------------------------------------|
A|-----------------3-3-3-3-3-3-3-3-------------------------------------------|
E|-0-0-0-0-0-0-0-0-----------------3-3-3-3-3-3-3-3-1-1-1-1-1-1-1-1-----------| x3

G|---------------------------------------------------------------------------|
D|---------------------------------------------------------------------------|
A|-----------------3-3-3-3-3-3-3-3-------------------------------------------|
E|-0-0-0-0-0-0-0-0-----------------3-3-3-3-3-3-3-3-1---1---1-1-----0~--------|

9. FM DIAL STYLE

Verse – 00.00 – 00.28

G|---------------------------------------------------------------------------|
D|---------------------------------------------------------------------------|
A|-4-4-4-4-4-4-4-4-----------------------------------------------------------|
E|-----------------4-4-4-4-4-4-4-4-1-1-1-1-1-1-1-1-2-2-2-2-2-2-2-2-----------|

G|---------------------------------------------------------------------------|
D|---------------------------------------------------------------------------|
A|---------------------------------------------------------------------------|
E|-7-7-7-7-7-7-7-7-1-1-1-1-1-1-1-1-2-2-2-2-2-2-2-2-4-4-4-4-4-4-4-4-----------|

G|---------------------------------------------------------------------------|
D|---------------------------------------------------------------------------|
A|-4-4-4-4-4-4-4-4-----------------------------------------------------------|
E|-----------------4-4-4-4-4-4-4-4-1-1-1-1-1-1-1-1-2-2-2-2-2-2-2-2-----------|

G|---------------------------------------------------------------------------|
D|---------------------------------------------------------------------------|
A|---------------------------------------------------------------------------|
E|-7-7-7-7-7-7-7-7-1-1-1-1-1-1-1-1-2-2-2-2-2-2-2-2-4-4-4-4-4-4-4-4-----------|

Chorus – 00.28 – 00.55

G|---------------------------------------------------------------------------|
D|---------------------------------------------------------------------------|
A|---------------------------------------------------------------------------|
E|-2-2-2-2-2-2-2-2-4-4-4-4-4-4-4-4-1-1-1-1-1-1-1-1-2-2-2-2-2-2-2-2-----------| x2

G|---------------------------------------------------------------------------|
D|---------------------------------------------------------------------------|
A|-4-4-4-4-4-4-4-4-----------------------------------------------------------|
E|-----------------4-4-4-4-4-4-4-4-1-1-1-1-1-1-1-1-2-2-2-2-2-2-2-2-----------|

G|---------------------------------------------------------------------------|
D|---------------------------------------------------------------------------|
A|-------------------------------------------------4-4-4-4-4-4-4-4-----------|
E|-2-2-2-2-2-2-2-2-4-4-4-4-4-4-4-4-1-1-1-1-1-1-1-1---------------------------|

Verse – 00.55 – 01.09 

G|---------------------------------------------------------------------------|
D|---------------------------------------------------------------------------|
A|-4-4-4-4-4-4-4-4-----------------------------------------------------------|
E|-----------------4-4-4-4-4-4-4-4-1-1-1-1-1-1-1-1-2-2-2-2-2-2-2-2-----------|

G|---------------------------------------------------------------------------|
D|---------------------------------------------------------------------------|
A|---------------------------------------------------------------------------|
E|-7---------------1---------------2---------------4-------------------------|

Guitar solo – 01.09 – 01.23

G|---------------------------------------------------------------------------|
D|---------------------------------------------------------------------------|
A|-4-4-4-4-4-4-4-4-----------------------------------------------------------|
E|-----------------7-7-7-7-7-7-7-7-1-1-1-1-1-1-1-1-1-1-1-1-1-1-1-1-----------| x2

Chorus – 01.23 – End. 

G|---------------------------------------------------------------------------|
D|---------------------------------------------------------------------------|
A|---------------------------------------------------------------------------|
E|-2-2-2-2-2-2-2-2-4-4-4-4-4-4-4-4-1-1-1-1-1-1-1-1-2-2-2-2-2-2-2-2-----------| x2

G|---------------------------------------------------------------------------|
D|---------------------------------------------------------------------------|
A|-4-4-4-4-4-4-4-4-----------------------------------------------------------|
E|-----------------4-4-4-4-4-4-4-4-1-1-1-1-1-1-1-1-2-2-2-2-2-2-2-2-----------|

G|---------------------------------------------------------------------------|
D|---------------------------------------------------------------------------|
A|-------------------------------------------------4-4-4-4-4-4-4-4-----------|
E|-2-2-2-2-2-2-2-2-4-4-4-4-4-4-4-4-1-1-1-1-1-1-1-1---------------------------|

G|---------------------------------------------------------------------------|
D|---------------------------------------------------------------------------|
A|---------------------------------------------------------------------------|
E|-2-2-2-2-2-2-2-2-4-4-4-4-4-4-4-4-1-1-1-1-1-1-1-1-2-2-2-2-2-2-2-2-----------| x2

G|---------------------------------------------------------------------------|
D|---------------------------------------------------------------------------|
A|-4-----------------------1----------------------------4--------------------|
E|---------------4------------------7----------2-----------------------------|

10. I LIKE YOU

Verse – 00.09 – 00.28

G|---------------------------------------------------------------------------|
D|-0-0-0-0-0-0-0-0-----------------------------------------------------------|
A|-----------------2-2-2-2-2-2-2-2-----------------0-0-0-0-0-0-0-0-----------|
E|---------------------------------3-3-3-3-3-3-3-3---------------------------| x2

Refrain – 00.28 – 00.48 

G|---------------------------------------------------------------------------|
D|---------------------------------------------------------------------------|
A|-----------------2-2-2-2-2-2-2-2-----------------4-4-4-4-4-4-4-4-----------|
E|-0-0-0-0-0-0-0-0-----------------2-2-2-2-2-2-2-2---------------------------|

G|---------------------------------------------------------------------------|
D|---------------------------------------------------------------------------|
A|-----------------2-2-2-2-2-2-2-2-----------------4-4-4-4-4-4-4-4-----------|
E|-0-0-0-0-0-0-0-0-----------------2-2-2-2-2-2-2-2---------------------------|

G|---------------------------------------------------------------------------|
D|---------------------------------------------------------------------------|
A|-----------------2---------------4-----------------------------------------|
E|-4-------------------------------------------------------------------------|

Verse – 00.48 – 01.07

G|---------------------------------------------------------------------------|
D|-0-0-0-0-0-0-0-0-----------------------------------------------------------|
A|-----------------2-2-2-2-2-2-2-2-----------------0-0-0-0-0-0-0-0-----------|
E|---------------------------------3-3-3-3-3-3-3-3---------------------------| x2

Refrain – 01.07 – 01.27

G|---------------------------------------------------------------------------|
D|---------------------------------------------------------------------------|
A|-----------------2-2-2-2-2-2-2-2-----------------4-4-4-4-4-4-4-4-----------|
E|-0-0-0-0-0-0-0-0-----------------2-2-2-2-2-2-2-2---------------------------|

G|---------------------------------------------------------------------------|
D|---------------------------------------------------------------------------|
A|-----------------2-2-2-2-2-2-2-2-----------------4-4-4-4-4-4-4-4-----------|
E|-0-0-0-0-0-0-0-0-----------------2-2-2-2-2-2-2-2---------------------------|

G|---------------------------------------------------------------------------|
D|---------------------------------------------------------------------------|
A|-----------------2---------------4---4---4---4-----------------------------|
E|-4-------------------------------------------------------------------------|

Chorus – 01.27 – 01.46

G|---------------------------------------------------------------------------|
D|---------------------------------------------------------------------------|
A|---------------------------------2-2-2-2-2-2-2-2-2-2-2-2-2-2-2-2-----------|
E|-2-2-2-2-2-2-2-2-2-2-2-2-2-2-2-2-------------------------------------------|

G|---------------------------------------------------------------------------|
D|---------------------------------------------------------------------------|
A|---------------------------------4-4-4-4-4-4-4-4-4-4-4-4-4-4-4-4-----------|
E|-2-2-2-2-2-2-2-2-2-2-2-2-2-2-2-2-------------------------------------------|

G|---------------------------------------------------------------------------|
D|---------------------------------------------------------------------------|
A|---------------------------------2-2-2-2-2-2-2-2-2-2-2-2-2-2-2-2-----------|
E|-2-2-2-2-2-2-2-2-2-2-2-2-2-2-2-2-------------------------------------------|

G|---------------------------------------------------------------------------|
D|---------------------------------------------------------------------------|
A|---------------------------------4-4-4-4-4-4-4-4-4-4x----------------------|
E|-2-2-2-2-2-2-2-2-2-2-2-2-2-2-2-2-------------------------------------------|

Guitar solo – 01.46 – 02.05

G|---------------------------------------------------------------------------|
D|---------------------------------------------------------------------------|
A|-----------------2-2-2-2-2-2-2-2---------2-2-2-2-4-4-4-4-4-4-4-4-----------|
E|-2-2-2-2-0-0-0-0-----------------2-2-2-2-----------------------------------| x2

Chorus – 02.05 – End. 

G|---------------------------------------------------------------------------|
D|---------------------------------------------------------------------------|
A|---------------------------------2-2-2-2-2-2-2-2-2-2-2-2-2-2-2-2-----------|
E|-2-2-2-2-2-2-2-2-2-2-2-2-2-2-2-2-------------------------------------------|

G|---------------------------------------------------------------------------|
D|---------------------------------------------------------------------------|
A|---------------------------------4-4-4-4-4-4-4-4-4-4-4-4-4-4-4-4-----------|
E|-2-2-2-2-2-2-2-2-2-2-2-2-2-2-2-2-------------------------------------------|

G|---------------------------------------------------------------------------|
D|---------------------------------------------------------------------------|
A|---------------------------------2-2-2-2-2-2-2-2-2-2-2-2-2-2-2-2-----------|
E|-2-2-2-2-2-2-2-2-2-2-2-2-2-2-2-2-------------------------------------------|

G|---------------------------------------------------------------------------|
D|---------------------------------------------------------------------------|
A|---------------------------------4-4-4-4-4-4-4-4-4-4x----------------------|
E|-2-2-2-2-2-2-2-2-2-2-2-2-2-2-2-2--------------------------2~---------------|

11. SEPTEMBERISM

Intro – 00.05 – 00.17

G|---------------------------------------------------------------------------|
D|---------------------------------------------------------------------------|
A|-------------4----4-4-4-4-4-4----------------------------------------------|
E|-0-0-0-2-2-2------------------4-4-4-4-4-4-4-4-4-4-4-4-4-4-4-4--------------|

G|---------------------------------------------------------------------------|
D|---------------------------------------------------------------------------|
A|-------------4----4-4-4-4-4-4----------------------------------------------|
E|-0-0-0-2-2-2------------------4-4-4-4-4-4-4-4-4-4-4-4-4-4-4x---------------|

Verse – 00.17 – 00.41

G|---------------------------------------------------------------------------|
D|---------------------------------------------------------------------------|
A|-2---2---2---2---2---2---2--2-2--------------------------------------------|
E|--------------------------------4---4---4---4---4---4---4--4-4-------------|

G|---------------------------------------------------------------------------|
D|---------------------------------------------------------------------------|
A|---------------------------------------------------------------------------|
E|-1---1---1---1---1---1---1--1-1-0---0---0---0---0---0---0--0-0-0-----------|

G|---------------------------------------------------------------------------|
D|---------------------------------------------------------------------------|
A|-2-2-2-2-2-2-2-2-2-2-2-2-2-2-2-2-4-4-4-4-4-4-4-4-4-4-4-4-4-4-4-4-----------|
E|---------------------------------------------------------------------------|

G|---------------------------------------------------------------------------|
D|---------------------------------------------------------------------------|
A|---------------------------------------------------------------------------|
E|-1-1-1-1-1-1-1-1-1-1-1-1-1-1-1-1-0-0-0-0-0-0-0-0-0-0-0-0x------------------|

Chorus – 00.41 – 00.53 

G|---------------------------------------------------------------------------|
D|---------------------------------------------------------------------------|
A|-------------4----4-4-4-4-4-4----------------------------------------------|
E|-0-0-0-2-2-2------------------4-4-4-4-4-4-4-4-4-4-4-4-4-4-4-4--------------|

G|---------------------------------------------------------------------------|
D|---------------------------------------------------------------------------|
A|-------------4----4-4-4-4-4-4----------------------------------------------|
E|-0-0-0-2-2-2------------------4-4-4-4-4-4-4-4-4-4-4-4-4-4-0-7~-------------|

Verse – 00.53 – 01.17

G|---------------------------------------------------------------------------|
D|---------------------------------------------------------------------------|
A|-2-2-2-2-2-2-2-2-2-2-2-2-2-2-2-2-4-4-4-4-4-4-4-4-4-4-4-4-4-4-4-4-----------|
E|---------------------------------------------------------------------------|

G|---------------------------------------------------------------------------|
D|---------------------------------------------------------------------------|
A|---------------------------------------------------------------------------|
E|-1-1-1-1-1-1-1-1-1-1-1-1-1-1-1-1-0-0-0-0-0-0-0-0-0-0-0-0-0-0-0-0-----------|

G|---------------------------------------------------------------------------|
D|---------------------------------------------------------------------------|
A|-2-2-2-2-2-2-2-2-2-2-2-2-2-2-2-2-4-4-4-4-4-4-4-4-4-4-4-4-4-4-4-4-----------|
E|---------------------------------------------------------------------------|

G|---------------------------------------------------------------------------|
D|---------------------------------------------------------------------------|
A|---------------------------------------------------------------------------|
E|-1-1-1-1-1-1-1-1-1-1-1-1-1-1-1-1-0-0-0-0-0-0-0-0-0-0-0-0x------------------|

Chorus – 01.17 – 01.41

G|---------------------------------------------------------------------------|
D|---------------------------------------------------------------------------|
A|-------------4----4-4-4-4-4-4----------------------------------------------|
E|-0-0-0-2-2-2------------------4-4-4-4-4-4-4-4-4-4-4-4-4-4-4-4--------------| x3

G|---------------------------------------------------------------------------|
D|---------------------------------------------------------------------------|
A|-------------4----4-4-4-4-4-4----------------------------------------------|
E|-0-0-0-2-2-2------------------4-4-4-4-4-4-4-4-4-4-4-4-4-4-0-4~-------------|

Bridge – 01.53 – 02.05

G|---------------------------------------------------------------------------|
D|---------------------------------------------------------------------------|
A|---------------------------------------------------------------------------|
E|-1-1-------------------------------1-1-------------------------------------| x2

G|---------------------------------------------------------------------------|
D|---------------------------------------------------------------------------|
A|---------------------------------------------------------------------------|
E|-1-1---------1-----1-----1----1--------------------------------------------|

Chorus – 02.05 – End. 

G|---------------------------------------------------------------------------|
D|---------------------------------------------------------------------------|
A|-------------4----4-4-4-4-4-4----------------------------------------------|
E|-0-0-0-2-2-2------------------4-4-4-4-4-4-4-4-4-4-4-4-4-4-4-4--------------| x3

G|---------------------------------------------------------------------------|
D|---------------------------------------------------------------------------|
A|-------------4----4-4-4-4-4-4----------------------------------------------|
E|-0-0-0-2-2-2------------------4-4-4-4-4-4-4-4-4-4-4-4-4-4-0-7~-------------|

12. SIDEKICK

No bass!! Sorry 

Thank you! 

===============================================================================

            
            
Suggest correction
Creating personal tab
Creating personal tab
You can edit any tab online and save it as your Personal.

You can edit, replace or remove any tab part or add personal notes – all changes will be seen only by you.

Personal tabs can be accessed anytime from any device, even offline.
Learn more »
Give kudos to tab author, rate the tab!
1 2 3 4 5
comments
print report bad tab
guest
You may want to rate the tab now too:
select rating
Wanna post a correction for this tab? Suggest correction