Oops, an error
Loading. Please wait.

Colours chords

1,918 views 1 this week
no commentswrite comment
1 2 3 4 5
2 more votes to show rating
add to favorites
×
Save as Personal and add changes to this tab that will be seen only by you. Learn more ›
×
You can save this tab as Personal to edit and correct it or add notes. All changes will be seen only by you. Learn more »
launch autoscroll
font size
0
reset
transpose
0
reset
simplify chords
display chords
guitar tuner
edit
Autoscroll
slow
fast
+/-
esc
set tempo
stop
Author
Difficulty
Strumming
There is no strumming pattern for this song yet. and get +5 IQ
- Give your rating and help others users to find the best versions of the songs -


Intro:

A, E, F#m, D, Dsus2


     A   
Dark Red, the colour of your blood drawing the wrist
       E
Cobalt Blue, the colour of the sky holding it all
      F#m
Pale Purple, umbrella, you keep from me trembling
      D                        Dsus2  
True Orange, everything coloured by the setting sun
       A
Chrome Yellow, you said to me it calls us happiness
      E
Moss Green, the hills of our town which kept us there
     F#m
Scarlet, the colour of the children's cheek you loved
     D                     Dsus2
Snow White, it covered every sorrows among us


A
Colourful world we had been everywhere we're standing
E
Coloruful world we had lost everything
             F#m                D
But you were standing, you were breathing just there
Dsus2
Under that each colours

A
Every light on the street had meaning of each story
E
Everyone believed in life day by day
             F#m                 D
But we would start it, we must start again ourselves
Dsus2
Put on the new colours again

      A*
Light Blond, you showed me your calm hair proudly
       E*
Bright Gold, the picture frame you always smile at me.
F#m 
Silver, the carved spoon we bought to start our life
     D*                      Dsus2*
Dull Grey, I dyed all in all after you have gone
      A
Transparent, the heart of the baby born today
      E
Flesh Colour, seeing my hand grasped tightly
    F#m
All Black, the colour of beginning of new days
     D                          Dsus2
Deep Brown, walking this land we have to go forward

A
Colourful world we had been everywhere we're standing
E
Colourful world we had lost everything
              F#m               D
But you were standing, you were breathing just there
Dsus2
Under that each colours

A
Every light on the street had meaning of each story
E
Everyone believed in life day by day
             F#m               D
But we would start it, we must start again ourselves
Dsus2
Go on the road
     A     E    F#m   D  Dsus2
Good Bye  

Solo Chords:

A, E, F#m, D, Dsus2

Solo:

       A                                             E
e----------------------------------12-12-10-9-10----------------------------------------------------
B------8/10-------10/12-10---------------------------10/12---10----9h10-12-10-9---------------------
G------------------------------------------------------------------------------------9--------------
D---------------------------------------------------------------------------------------------------
A---------------------------------------------------------------------------------------------------
E---------------------------------------------------------------------------------------------------
             F#m                           D                       Dsus2
E-------------------------------------9-10-10/12----------------------------------------------------
B---------------------------------------------------10-10--12/14-12---------------------------------
G----6-7-6-7-7/9------------------------------------------------------------------------------------
D--------------------7-7----------------------------------------------------------------------------
A---------------------------------------------------------------------------------------------------
E---------------------------------------------------------------------------------------------------
                A                           E                                          F#m
E----12-12--10--9----9h10h9---------------------------------/12-12--10-9-10-10/12-------------------
B--------------------------10----------------------/10-10------------------------------10-----------
G------------------------------9-7--6-7-6-7-7/9-----------------------------------------------------
D---------------------------------------------------------------------------------------------------
A---------------------------------------------------------------------------------------------------
E---------------------------------------------------------------------------------------------------
                                      D            Dsus2             A
E---------10-10-9-10-9----------------------------------------------------------7-------------------
B-----------------------10---10------------------------------/12-12--10-10--------------------------
G--------------------------9----9-----7-6-7-6--------------------------------9----------------------
D----------------------------------------------7-7/9-7-9--------------------------------------------
A---------------------------------------------------------------------------------------------------
E---------------------------------------------------------------------------------------------------
                                                          A
E-------------7---------------7---------------7-----------7-----------------------------------------
B-----10-------------10----------------10-----------------10----------------------------------------
G---------9---------------9----------------9--------------9-----------------------------------------
D---------------------------------------------------------7-----------------------------------------
A---------------------------------------------------------0-----------------------------------------
E---------------------------------------------------------------------------------------------------


Thanks.

            
            
Suggest correction
Creating personal tab
Creating personal tab
You can edit any tab online and save it as your Personal.

You can edit, replace or remove any tab part or add personal notes – all changes will be seen only by you.

Personal tabs can be accessed anytime from any device, even offline.
Learn more »
Give kudos to tab author, rate the tab!
1 2 3 4 5
comments
print report bad tab
guest
You may want to rate the tab now too:
select rating
Wanna post a correction for this tab? Suggest correction