Oops, an error
Loading. Please wait.

Everything To Nothing tab

version 1
version 1

Whole song

25,502 views 12 this week
4 commentsread comments
1 2 3 4 5
x 6
add to favorites
×
Save as Personal and add changes to this tab that will be seen only by you. Learn more ›
×
You can save this tab as Personal to edit and correct it or add notes. All changes will be seen only by you. Learn more »
launch autoscroll
font size
0
reset
how to read this tab
guitar tuner
edit
Autoscroll
slow
fast
+/-
esc
set tempo
stop
Author
Feedback welcome

Drop Db tuning (Db Ab Db Gb Bb eb)

Intro
|----|
|----|
|----|
|-5--|
|-5--|
|-5--|

Guitar1
|--------------|
|--------------|
|--------------|
|--5--4--9--0--|
|--5--4--9--0--|
|--5--4--9--0--|

Guitar2
|----------10--12-14----14-12-10--|
|--12--11-------------------------|
|----------11--12-14----14-12-11--|
|--12--11-------------------------|
|---------------------------------|
|---------------------------------|

Guitar1
|-----------------------|
|-----------------------|
|-----------------------|
|--5--7--9--0--5--4--0--|
|--5--7--9--0--5--4--0--|
|--5--7--9--0--5--4--0--|X2

Guitar2
|---------------|
|---------------|
|-7-9-11--7-6-2-|
|---------------|
|-5-7-9---5-4-0-|
|---------------|X2


Verse(palm-muted)
|--------------------|
|--------------------|
|--------------------|
|--5--7--9--9--7--0--|
|--5--7--9--9--7--0--|
|--5--7--9--9--7--0--|
"Definitely not the things..."

|-----------------------|
|-----------------------|
|-----------------------|
|--5--7--9--0--9--7--0--|
|--5--7--9--0--9--7--0--|
|--5--7--9--0--9--7--0--|
"I found a note..."

|-----------------------|                                 
|-----------------------|                                          
|-----------------------|                                          
|--9--7--0--5--5--7--0--|                                          
|--9--7--0--5--5--7--0--|                                          
|--9--7--0--5--5--7--0--|X2   after the time there's a little 
filler riff that goes:
|----------------|
|----------------|
|-11h12p11h12p11-|
|----------------|
|----------------|
|----------------|
"I'm not complaining..."

Pre-chorus
|------|
|------|
|------|
|-5--4-|
|-5--4-|
|-5--4-|
"You mean..."

Chorus
Guitar1
|-----------------------|
|-----------------------|
|-----------------------|
|--5--7--9--0--5--4--0--|
|--5--7--9--0--5--4--0--|
|--5--7--9--0--5--4--0--|X2

Guitar2
|---------------|
|---------------|
|-7-9-11--7-6-2-|
|---------------|
|-5-7-9---5-4-0-|
|---------------|X2


Verse(palm muted first time)
|--------------------|                                   |-14-----|
|--------------------|                                   |---15---|
|--------------------|                                   |-----14-|
|--5--7--9--9--7--0--|                                   |--------|
|--5--7--9--9--7--0--|                                   |--------|
|--5--7--9--9--7--0--|X2 after first time Guitar 2 plays |--------| til end of verse
"I don't know much..."

|-10-12-14-12-10-|
|----------------|
|-11-12-14-12-11-|
|----------------|
|----------------|
|----------------|X2
second "I don't know what to do..."

Pre-chorus
|------|
|------|
|------|
|-5--4-|
|-5--4-|
|-5--4-|
"And you, well you mean..."

Chorus
Guitar1
|-----------------------|
|-----------------------|
|-----------------------|
|--5--7--9--0--5--4--0--|
|--5--7--9--0--5--4--0--|
|--5--7--9--0--5--4--0--|X2

Guitar2
|---------------|
|---------------|
|-7-9-11--7-6-2-|
|---------------|
|-5-7-9---5-4-0-|
|---------------|X2


Bridge
|------------0--------------------------|
|--------------------12----------15-----|
|----4--------2--------11----------14---|
|-5---5---4-4--4--9------9--12-12----12-|
|-5-5--5--4-------9-9-------12----------|
|-5-------4-------9---------12----------|X4(can split between 2 guitars)
"You mean everything to nothing..."

Guitar1
|----|     |---------|
|----|     |---------|
|----|     |---------|
|-5--|     |-5p0-5p0-|
|-5--|     |-5p0-5p0-|
|-5--|X12  |-5p0-5p0-|

Guitar2
|----|     |-----|
|----|     |-----|
|-7--|     |-7/2-|
|----|     |-----|
|-5--|     |-5/0-|
|----|X12  |-----|

Guitar1
|-----------------|
|-----------------|
|-----------------|
|-9--7--5--5--5p0-|
|-9--7--5--5--5p0-|
|-9--7--5--5--5p0-|

Guitar2
|-----------------|
|-----------------|
|-11-9-7-7/12-4-2-|
|-----------------|
|-9--7-5-5/10-2-0-|
|-----------------|

Guitar1
|------------------|
|------------------|
|------------------|
|-9--7--5--4--9--0-|
|-9--7--5--4--9--0-|
|-9--7--5--4--9--0-|
"You mean everything to nothing..."

Guitar2
|-----------------|
|-----------------|
|-11-9-7-7-6-4-2--|
|-----------------|
|-9--7-5-5-4-2-0--|
|-----------------|

Guitar1
|--------------|
|--------------|
|--------------|
|--5--4--9--0--|
|--5--4--9--0--|
|--5--4--9--0--|X2

Guitar2
|-----------|
|-----------|
|--7-6-4-2--|
|-----------|
|--5-4-2-0--|
|-----------|X2

Guitar1
|-----------------------|
|-----------------------|
|-----------------------|
|--5--7--9--0--5--4--0--|
|--5--7--9--0--5--4--0--|
|--5--7--9--0--5--4--0--|X2

Guitar2
|---------------|
|---------------|
|-7-9-11--7-6-2-|
|---------------|
|-5-7-9---5-4-0-|
|---------------|X2

|----|
|----|
|----|
|-5--|
|-5--|
|-5--|

Outro
Guitar1
|--------------|
|--------------|
|--------------|
|--5--4--9--0--|
|--5--4--9--0--|
|--5--4--9--0--|

Guitar2
|----------10--12-14----14-12-10--|
|--12--11-------------------------|
|----------11--12-14----14-12-11--|
|--12--11-------------------------|
|---------------------------------|
|---------------------------------|

GUitar1
|-----------------------------|
|-----------------------------|
|-----------------------------|
|-0/2/4/5--7/4--4/5/7/9--9p0--|
|-0/2/4/5--7/4--4/5/7/9--9p0--|
|-0/2/4/5--7/4--4/5/7/9--9p0--|X3

|----------|
|----------|
|----------|
|-0/2/4/5--|
|-0/2/4/5--|
|-0/2/4/5--|

Guitar2
|-----10----------9-10--12-14----14-12-10--|          |----|
|--12---11--11-12--------------------------|          |-12-|
|-----11----------9-11--12-14----14-12-11--|          |----|
|--12---11--11-12--------------------------|          |-12-|
|------------------------------------------|          |----|
|------------------------------------------|X3 end on |----|



            
            
Suggest correction
Creating personal tab
Creating personal tab
You can edit any tab online and save it as your Personal.

You can edit, replace or remove any tab part or add personal notes – all changes will be seen only by you.

Personal tabs can be accessed anytime from any device, even offline.
Learn more »
comments
print report bad tab
4 comments total. Showing first comments.
+2 reply
YourFavWeapon83 487 Apr 28, 2009 02:12 PM

good job bro. i was gonna put this up today when i saw you already submitted it.

only thing im iffy about is the bridge (it was one of the few differences)
anywho heres what im hearing. let me know what you think.
|------------------------------------------------------------|
|--------------------5------------12----------------15-------|
|-------7--------------4-------------11----------------14----|
|-----5---5--------4-----4------9-------9--------12-------12-|
|---5-------5----4------------9---------------12-------------|
|-5------------4------------9--------------12----------------|

+1 reply
YourFavWeapon83 487 Apr 28, 2009 02:14 PM

oops
the second part is supposed to be this
|---------------|
|--------5------|
|----------6----|
|------4-----4--|
|----4----------|
|--4------------|
:]

+1 reply
jtrocks44 256 Apr 29, 2009 02:19 PM

Thanks man. That was the one part I was most iffy about too. I think you have it right though. I'll probably update it soon.

guest
You may want to rate the tab now too:
select rating
Wanna post a correction for this tab? Suggest correction