Oops, an error
Loading. Please wait.

I Can Feel A Hot One tab

version 3
version 3

Whole song

  • Made it more compact, also took the notes up a few strings to make it easier.

Interactive

491 views 6 this week
no commentswrite comment
1 2 3 4 5
x 4
add to favorites
×
Save as Personal and add changes to this tab that will be seen only by you. Learn more ›
×
You can save this tab as Personal to edit and correct it or add notes. All changes will be seen only by you. Learn more »
launch autoscroll
font size
0
reset
how to read this tab
guitar tuner
edit
Autoscroll
slow
fast
+/-
esc
set tempo
stop
About this tab version
Made it more compact, also took the notes up a few strings to make it easier. Was this info helpful? Yes No
-------------------------------------------------------------------------------
                             I Can Feel A Hot One - Manchester Orchestra
-------------------------------------------------------------------------------
Tabbed by: quidquem

Jjennings216's tab is great, but I personally don't like tabs that repeat each line.
So I made this tab a bit more compact.

I also wondered if it would be easier to play this (especially for beginners) 
if I took the notes up 1-2 strings, so you're just playing the first 5 frets. 
It just makes it harder if you have no capo. 
However if you do have a capo, it's easier to play it that way, imo.

I've also included a compact version of the original. Just scroll down to the one you want to use. 

For Beginners
Tuning: EADGBe

Intro:
e---------4------------3~-------------------|
B------1-----1------1-----------------------|
G---1------------1--------------------------|
D-------------------------------------------| 2 times
A-------------------------------------------|
E-------------------------------------------|

Verse:
e---------4------------3~-------------------|
B------1-----1------1-----------------------|
G---1------------1--------------------------|
D-------------------------------------------| 2 times
A-------------------------------------------|
E-------------------------------------------|

e-----1--4--1------1--4~---------1-------------3-----|
B-----------------------------2-----2-------4--------|
G----------------------------------------------------|
D--3------------3-----------------------/1-----------| 
A--------------------------4-------------------------|
E----------------------------------------------------|

Play intro between verses.

Last Verse
e-------------------------------------------------------------------------|
B--------2----------------------1------------------2------------2---------|
G-----1-----1---------1----------------3--------1-----1------1-----1------|
D------------------1-----1---3------1-------------------------------------| 4 times
A--4-----------------------------------------4------------4---------------| 
E---------------4---------------------------------------------------------|

After the last verse play: intro - verse - intro - verse.

************************************************************************

For Beginners + Capo on 1

Intro:
e---------3------------2~------------------|
B------0-----0------0----------------------|
G---0------------0-------------------------|
D------------------------------------------| 2 times
A------------------------------------------|
E------------------------------------------|

Verse:
e---------3------------2~------------------|
B------0-----0------0----------------------|
G---0------------0-------------------------|
D------------------------------------------| 2 times
A------------------------------------------|
E------------------------------------------|

e------0--3--0------0--3~---------0-------------2-----|
B------------------------------1-----1-------3--------|
G-----------------------------------------------------|
D---2------------2-----------------------/0-----------| 
A---------------------------3-------------------------|
E-----------------------------------------------------|

Play intro between verses.

Last Verse:
e-----------------------------------------------------------------------|
B---------1----------------------0---------------1------------1---------|
G------0-----0---------0---------------2------0-----0------0-----0------|
D-------------------0-----0---2-----0-----------------------------------| 4 times
A---3--------------------------------------3------------3---------------|
E----------------3------------------------------------------------------|

After the last verse play: intro - verse - intro - verse.

************************************************************************

Original + Capo on 1

Intro:
e------------------------------------------|
B------------------------------------------|
G-----------13---------------12~-----------|
D-------10------10-------10----------------| 2 Times
A---11---------------11--------------------|
E------------------------------------------|

Verse:
e------------------------------------------|
B------------------------------------------|
G-----------13---------------12~-----------|
D-------10------10-------10----------------| 2 Times
A---11---------------11--------------------|
E------------------------------------------|

e-----------------------------------------------------|
B---------9--------------9~---------6-------------8---|
G------10----10------10----------6-----6-------8------|
D-----------------------------------------------------| 
A---8-------------8-----------4------------/6---------|
E-----------------------------------------------------|

Play intro between verses.

e------------------------------------------------------------------------------|
B------------------------------------------------------------------------------|
G------------------------------------------------------------------------------|
D----------11-------------6---------10------------------11--------------11-----| 4 times
A------11------11------6-----6---8----------13------11------11------11------11-|
E---9---------------4-------------------11-------9---------------9-------------|

After the last verse play: intro - verse - intro - verse.


************************************

| /   slide up
| \   slide down
| h   hammer-on
| p   pull-off
| ~   vibrato
| +   harmonic
| x   Mute note
| b   Bend
| pb  Pre-bend
| br  Bend release
| pbr Pre-bend release
| brb Bend release bend

************************************

            
            
Suggest correction
Creating personal tab
Creating personal tab
You can edit any tab online and save it as your Personal.

You can edit, replace or remove any tab part or add personal notes – all changes will be seen only by you.

Personal tabs can be accessed anytime from any device, even offline.
Learn more »
comments
print report bad tab
guest
You may want to rate the tab now too:
select rating
Wanna post a correction for this tab? Suggest correction