Oops, an error
Loading. Please wait.

I Can Feel A Hot One intro tab

version 1
version 1

Intro

Whole song

  • Made it more compact, also took the notes up a few strings to make it easier.

Interactive

19,161 views 12 this week
1 commentread comment
1 2 3 4 5
x 3
add to favorites
×
Save as Personal and add changes to this tab that will be seen only by you. Learn more ›
×
You can save this tab as Personal to edit and correct it or add notes. All changes will be seen only by you. Learn more »
launch autoscroll
font size
0
reset
how to read this tab
guitar tuner
edit
Autoscroll
slow
fast
+/-
esc
set tempo
stop
Author
Difficulty
Tab by: Owen Thomas
Tuning: Standard

Note: This is the intro for the song, but it is also the main theme.  You can play this 
in the song except for the bridge.

Intro:
e:--------------------------------|
B:--------------------------------|
G:------13-----12-------13-----12-|
D:----10--10-10-------10--10-10---|
A:--11------11------11------11----|
E:--------------------------------|

I can feel a hot one taking me down...
e:--------------------------------|
B:--------------------------------|
G:------13-----12-------13-----12-|
D:----10--10-10-------10--10-10---|
A:--11------11------11------11----|
E:--------------------------------|

Fainted to the point of tears...
e:--------------------------|
B:-----9-----9------6-----8-|
G:---10-10-10-----6--6--8---|
D:--------------------------|
A:--8-----8------4-----6----|
E:--------------------------|

REPEAT

            
            
Suggest correction
Creating personal tab
Creating personal tab
You can edit any tab online and save it as your Personal.

You can edit, replace or remove any tab part or add personal notes – all changes will be seen only by you.

Personal tabs can be accessed anytime from any device, even offline.
Learn more »
Give kudos to tab author, rate the tab!
1 2 3 4 5
comments
print report bad tab
1 comment total.
0 reply
mooondog 10 Jul 02, 2009 03:42 PM

great tab. I think he plays it in a couple different tunings. A decent sounding bridge in standard tuning is

e:------------------------------|
B:-----6-----8------------------|
G:---6--6--8--8-----10---8---6--|
D:----------------10----8---6---|
A:--4-----6------8-----6---4----|
E:------------------------------|

guest
You may want to rate the tab now too:
select rating
Wanna post a correction for this tab? Suggest correction