Oops, an error
Loading. Please wait.

Now That Youre Home tab

version 1
version 1

Whole song

6,327 views 1 this week
1 commentread comment
1 2 3 4 5
x 3
add to favorites
×
Save as Personal and add changes to this tab that will be seen only by you. Learn more ›
×
You can save this tab as Personal to edit and correct it or add notes. All changes will be seen only by you. Learn more »
launch autoscroll
font size
0
reset
how to read this tab
guitar tuner
edit
Autoscroll
slow
fast
+/-
esc
set tempo
stop
Author
This is an awesome song and an awesome band. As far as i know this is the first and only 
of this song. There aren't much tabs of this band.

The song is fairly simple but the timing is a little difficult.

Manchester Orchestra - Now That You’re Home

Intro:
(distorted)
e-------------------------------------------------------------------|
B-------------------------------------------------------------------|
G-------------------------------------------------------------------|
D-7-7/10-10-10/7-7--7-7/10-10-10/7-7--7-7/10-10-10/7-7--7-7/5-5/7-7-|
A-7-7/10-10-10/7-7--7-7/10-10-10/7-7--7-7/10-10-10/7-7--7-7/5-5/7-7-|
E-5-5/ 8- 8- 8/5-5--5-5/ 8- 8- 8/5-5--5-5/ 8- 8- 8/5-5--5-5/3-3/5-5-|

e-------------------------------------------------------------------|
B-------------------------------------------------------------------|
G-------------------------------------------------------------------|
D-7-7/10-10-10/7-7--7-7/10-10-10/7-7--7-7/10-10-10/7-7--7-7/5-5-5-7-|
A-7-7/10-10-10/7-7--7-7/10-10-10/7-7--7-7/10-10-10/7-7--7-7/5-5-5-7-|
E-5-5/ 8- 8- 8/5-5--5-5/ 8- 8- 8/5-5--5-5/ 8- 8- 8/5-5--5-5/3-3-3-5-|

Guitar 1: (distorted)
e-----
B-----
G-----
D–-7--
A–-7--(let ring out and give a slight bend)
E–-5–-

Guitar 2: (distorted)
e--------0------------~~
B–2~~~~~–--2–--2~~~~--~~
G–2~~~~~—----2-2~~~~--~~
D–2~~~~~-------2------~~~~~~~(ring out)
A-0~~~~~-------0~~~~--~~
E---------------------~~

Verse 1:

Guitar 1: (clean)
e--0--
B--1--
G--0--(ring out)
D--2--
A–-3--
E-----

Guitar 2: (clean)
e–--------0--------------0-----------0----------3-|
B-----------1--------------1-----------1--------3-|
G------0------0-------0------0-----2-----2----2-0-|
D—---2--------------2------------3------------2-0-|
A–-3------------3-0------------3------------0-0-2-|
E----------------------------------------3----3---|

e–--------0-------------0------------0-------|
B-----------1-------------1------------1-----|
G------0------0-------0------0-----2-----2---|
D—---2--------------2------------3-----------|
A–-3------------3-0------------3-------------|
E------------------------------------------3-|

Interlude:

(distorted)
e-------------------------------------------------------------------|
B-------------------------------------------------------------------|
G-------------------------------------------------------------------|
D-7-7/10-10-10/7-7--7-7/10-10-10/7-7--7-7/10-10-10/7-7--7-7/5-5/7-7-|
A-7-7/10-10-10/7-7--7-7/10-10-10/7-7--7-7/10-10-10/7-7--7-7/5-5/7-7-|
E-5-5/ 8- 8- 8/5-5--5-5/ 8- 8- 8/5-5--5-5/ 8- 8- 8/5-5--5-5/3-3/5-5-|

e-------------------------------------------------------------------|
B-------------------------------------------------------------------|
G-------------------------------------------------------------------|
D-7-7/10-10-10/7-7--7-7/10-10-10/7-7--7-7/10-10-10/7-7--7-7/5-5-5-7-|
A-7-7/10-10-10/7-7--7-7/10-10-10/7-7--7-7/10-10-10/7-7--7-7/5-5-5-7-|
E-5-5/ 8- 8- 8/5-5--5-5/ 8- 8- 8/5-5--5-5/ 8- 8- 8/5-5--5-5/3-3-3-5-|

Guitar 1: (distorted)
e--------|
B--------|
G--------|
D–-7~~~~~
A–-7~~~~~(ring out)
E–-5~~~~~

Guitar 2: (distorted)
e-----------------|
B-----------------|
G-----------------|
D–-7~~~~~-7~~~~~~-
A–-7~~~~~-7~~~~~~-(ring out and give a couple of slight bends)
E–-5~~~~~–5~~~~~~-

Verse2:

Guitar 2: (slight distort)
e–--------0--------------0-----------0----------3-|
B-----------1--------------1-----------1--------3-|
G------0------0-------0------0-----2-----2----2-0-|
D—---2--------------2------------3------------2-0-|
A–-3------------3-0------------3------------0-0-2-|
E----------------------------------------3------3-|

e–--------0-------------0------------0-----------3-----|
B-----------1-------------1------------1-----------3---|
G------0------0-------0------0-----2-----2-----0-----0-|
D—---2--------------2------------3-----------0---------|
A–-3------------3-0------------3-----------------------|
E------------------------------------------3-----------|

e-------0------------3-|
B---------1----------3-|
G-----2-----2-----0--0-|
D---3-----------0------|
A-3--------------------|
E-------------3--------|

Bridge:

Guitar 1&2: (distort)
e--------------------------------------------------|
B--------------------------------------------------|
G--------------------------------------------------|
D-7-7-7-5-5-5-3-3-3-3-3--3-3-3-3-3-3-5-5-5-5-5-5-5-|
A-7-7-7-5-5-5-3-3-3-3-3--3-3-3-3-3-3-5-5-5-5-5-5-5-|
E-5-5-5-3-3-3-1-1-1-1-1--1-1-1-1-1-1-3-3-3-3-3-3-3-|
                         * * * * * * * * * *
			     (Palm Mute)
e-----------------------|
B-----------------------|
G-----------------------|
D-7-7-7-5-5-5-3-3-3-3-3-| 3x
A-7-7-7-5-5-5-3-3-3-3-3-|
E-5-5-5-3-3-3-1-1-1-1-1-|

Guitar 2: (slight distort)
e-0/~~~-0~~~--|
B-1/~~~-3~~~--|
G-2/~~~-4~~~--|
D-3/~~~-5~~~--|
A–3/~~~-5~~~--
E------------
 (Slide up)

Interlude:
e-------------------------------------------------------------------|
B-------------------------------------------------------------------|
G-------------------------------------------------------------------|
D-7-7/10-10-10/7-7--7-7/10-10-10/7-7--7-7/10-10-10/7-7--7-7/5-5/7-7-|
A-7-7/10-10-10/7-7--7-7/10-10-10/7-7--7-7/10-10-10/7-7--7-7/5-5/7-7-|
E-5-5/ 8- 8- 8/5-5--5-5/ 8- 8- 8/5-5--5-5/ 8- 8- 8/5-5--5-5/3-3/5-5-|

e-------------------------------------------------------------------|
B-------------------------------------------------------------------|
G-------------------------------------------------------------------|
D-7-7/10-10-10/7-7--7-7/10-10-10/7-7--7-7/10-10-10/7-7--7-7/5-5-5-7-|
A-7-7/10-10-10/7-7--7-7/10-10-10/7-7--7-7/10-10-10/7-7--7-7/5-5-5-7-|
E-5-5/ 8- 8- 8/5-5--5-5/ 8- 8- 8/5-5--5-5/ 8- 8- 8/5-5--5-5/3-3-3-5-|


e---------------------------------------------|
B---------------------------------------------|
G---------------------------------------------|
D-7-7--10--7-7--10--7-7--10--7-7--7-7/5-5-5-7-| 2x
A-7-7--10--7-7--10--7-7--10--7-7--7-7/5-5-5-7-|
E-5-5-- 8--5-5-- 8--5-5-- 8--5-5--5-5/3-3-3-5-|

Outro:

Guitar 1: (distort
e---------------------------------0-0-0--0-0-0--3-3-3---0-|
B---------------------------------1-1-1--1-1-1--3-3-3---2-|
G---------------------------------0-0-0--2-2-2--0-0-0---2-|(ring out)
D---------------------------------2-2-2--3-3-3--0-0-0---2-|
A---------------------------------3-3-3--3-3-3--2-2-2---0-|
E-----------------------------------------------3-3-3-----|
			           (Build up gradually)

Guitar 2: (clean)
e-----0------0-------3-------0--------0------0-------3---0-|
B----1-1----1-1-----3-3-----2-2------1-1----1-1-----3-3--2-|
G---0---0--2---2---0---0---2---2----0---0--2---2---0---0-2-|
D—-2------3-------0-------2------—-2------3-------0------2-|(ring out)
A-3------3-------2-------0--------3------3-------2-------0-|
E---------------3-------------------------------3----------|

Guitar 1&2: (distort)
e-0-0-0-0-0-0-0-0-3-3-3-3-0-0-0-0-    ------------|
B-1-1-1-1-1-1-1-1-3-3-3-3-2-2-2-2-    -2--2--2--2-|
G-0-0-0-0-2-2-2-2-0-0-0-0-2-2-2-2-    -2--2--2--2-|
D-2-2-2-2-3-3-3-3-0-0-0-0-2-2-2-2- 4x -2--2--2--2-|
A-3-3-3-3-3-3-3-3-2-2-2-2-0-0-0-0-    -0--0--0--0-|
E-----------------3-3-3-3---------    ------------|

            
            
Suggest correction
Creating personal tab
Creating personal tab
You can edit any tab online and save it as your Personal.

You can edit, replace or remove any tab part or add personal notes – all changes will be seen only by you.

Personal tabs can be accessed anytime from any device, even offline.
Learn more »
Give kudos to tab author, rate the tab!
1 2 3 4 5
comments
print report bad tab
1 comment total.
0 reply
loganisonfire 10 May 28, 2007 07:24 PM

i've seen them live it goes Am to Cmaj to Emi at te beginning

guest
You may want to rate the tab now too:
select rating
Wanna post a correction for this tab? Suggest correction