Oops, an error
Loading. Please wait.

Pride tab

version 1
version 1

Whole song

28,997 views 27 this week
2 commentsread comments
1 2 3 4 5
x 11
add to favorites
×
Save as Personal and add changes to this tab that will be seen only by you. Learn more ›
×
You can save this tab as Personal to edit and correct it or add notes. All changes will be seen only by you. Learn more »
launch autoscroll
font size
0
reset
how to read this tab
guitar tuner
edit
Autoscroll
slow
fast
+/-
esc
set tempo
stop
Author
I won't tab out every detail of the song, but here are the basics to get you started.

Eb tuning

Verses
|-------------------------|
|-------------------------|
|-------------------------|
|-------------------------|
|--5h7--7--7--9---5h7--7--|
|--0-------8--10--0-------|  
at some point there will be a bend on that last 7 and the

|------|                   |------------|
|-7-9--|                   |--7-----9---|
|-8-10-| part will become  |-8-8--10-10-|


Other riff
|--------------|    |-------------|
|--------------|    |-------------|
|--------------|    |-------------|
|--------------|    |-2-------7-5-|
|---7p5--------|    |-2-7p5---7-5-|
|-0-----7-5-3--| or |-0-----7-5-3-|
at some point the riff is played a little higher like this

|------------|
|------------|
|--9p7-------|
|------9-7-5-|
|-7----------|
|------------|


Bridge riff
|---------|
|---------|
|-9-7-6-4-|
|-x-x-x-x-|
|-7-5-4-2-|
|---------|
another guitar will play something like

|---------|
|---------|
|---------|
|-2-5-7-2-|
|-2-5-7-2-|
|-0-3-5-0-|

            
            
Suggest correction
Creating personal tab
Creating personal tab
You can edit any tab online and save it as your Personal.

You can edit, replace or remove any tab part or add personal notes – all changes will be seen only by you.

Personal tabs can be accessed anytime from any device, even offline.
Learn more »
comments
print report bad tab
2 comments total.
0 reply
earthchild18 63 Aug 22, 2011 07:49 PM

you should tab the whole thing its a really great song and i would like to know the whole thing

+5 reply
_literati_ 10 Feb 12, 2012 11:08 AM

No offense, but if you're going to tab something out, you might as well do the whole thing. Also, you missed a rather important note in these riffs:

|--------------| |-------------|
|--------------| |-------------|
|--------------| |-------------|
|--------------| |-2-------7-5-|
|---7p5--------| |-2-7p5---7-5-|
|-0-----7-5-3--| or |-0-----7-5-3-|

|----------------| |---------------|
|----------------| |---------------|
|----------------| |---------------|
|----------------| |-2---------7-5-|
|---7p5p0--------| |-2-7p5p0---7-5-|
|-0-------7-5-3--| or |-0-------7-5-3-|

guest
You may want to rate the tab now too:
select rating
Wanna post a correction for this tab? Suggest correction