Oops, an error
Loading. Please wait.

Shake It Out bass

version 1
version 1

Whole song

Interactive

5,872 views 18 this week
no commentswrite comment
1 2 3 4 5
2 more votes to show rating
add to favorites
×
Save as Personal and add changes to this tab that will be seen only by you. Learn more ›
×
You can save this tab as Personal to edit and correct it or add notes. All changes will be seen only by you. Learn more »
launch autoscroll
font size
0
reset
guitar tuner
edit
Autoscroll
slow
fast
+/-
esc
set tempo
stop
-----------------------------------------------------------------------------
			 SHAKE IT OUT - Manchester Orchestra
-----------------------------------------------------------------------------

Tabbed By : Steve Healy
e-mail: steeeeeve13@hotmail.com

Tuning: DADG - although you can use D#ADG and make the relevant adjustments if you prefer.

This is tabbed by ear from the album Mean Everything to Nothing, i am aware the bassist 
up this song a lot more in live clips etc, but he usually remains within this basic framework.

Intro (0:06)
G|--------------------------------------------------------------------------|
D|--------------------------------------------------------------------------|
A|--------------------------------------------------------------------------|
E|-6-8\1---------6/8-8-8-8-6-6-8-8-8-8-8-8-8-8-6/8-8-8-8-6-6-8-8-8-8-8-8-8-8|

Verse (0:26) "Shake it out, shake it out..."
G|--------------------------------------------------------------------------|
D|--------------------------------------------------------------------------|
A|--------------------------------------------------------------------------|
E|-6/8-8-8-8-6-6-8-8-8-8-8-8-8-8-6/8-8-8-8-6-6-8-8-8-8-8-8-8-8-4-4-4-4-4-3--|

G|--------------------------------------------------------------------------|
D|--------------------------------------------------------------------------|
A|--------------------------------------------------------------------------|
E|-4-4-4-4-4-4/6/8-8-8-8-6-6-8-8-8-8-8-8-8-8-6/8-8-8-8-6-6-8-8-8-8-8-8-8-8--|

x2

Bridge (0:51) "Cause i'm done being done with funerals..."
G|--------------------------------------------------------------------------|
D|----6----6-6---6----6-----------------6----6-6--6-----6-------------------|
A|-----------------------4---4/9---9\----------------------4---4/9----------|
E|-6-6--6-6-----6--6-6--6------------6-6--6-6----6---6-6--6-----------------|

Then repeat Verse + Bridge again

Interlude (1:50) "...are you tired of being alone...so speak to me"
G|--------------------------------------------------------------------------|
D|----------------------------------------------------8-------------------8-|
A|-------8-8---8--------------8/11--11-11-11-11----------------8-6----------|
E|-8-8--8----8---8-8\3---8--88--------------------888--8--8-8-8----6h8-88--8|

                                                  "OH GOD YOU GOTTA.."
G|--------------------------------------------------------------------------|
D|---------------------------------------------------------------8----------|
A|------8-6---------6-4-------------------4h6-4-6-6-6--64----------------8-6|
E|-8-8-8----8\4-4-4-----6-4--4-4--6\1-1-1-----------------6h8-8-8-8-8-8-8---|

G|--------------------------------------------------------------------------|
D|--------8-----------------------------------------------------------------|
A|-----------------8-6---------6-4-------------------4h6-4-6-6-6--64--------|
E|-6h8-8-8-8-8-8--8----8\4-4-4-----6-4--4-4--6\1-1-1-----------------888\1--|

G|--------------------------------------------------------------------------|
D|--------------------------------------------------------------------------|
A|---------------------------------6-4------------------4h6-4------4h6p4----|
E|-8-8-8\1--888\1--8-8-8\1---4-4-4-----6-4--4-4-6\1-1-1------1-1-1----------|

Break/Slow half of the song. (2:35)
G|--------------------------------------------------------------------------|
D|--------------------------------------------------------------------------|
A|-1---/4-/9----------------------------------------------------------------|
E|--------------------------------------------------------------------------|

"...that you can't fix" (3:14)
G|--------------------------------------------------------------------------|
D|--------------------------------------------------------------------------|
A|-1-1/4-4\-----------------------------------------------------------------|
E|---------4-4---4---4--4-4-4-4---------------------------------------------|

x6

"don't stop don't ever go (3:53)
G|--------------------------------------------------------------------------|
D|--------------------------------------------------------------------------|
A|-1-1/4-4\9-9---9---9-9-9-9-9\-1-1/4-4\---------------------1-1/3-3/4-4--4-|
E|--------------------------------------4-4---4---4--4-4-4-4----------------|

G|--------------------------------------------------------------------------|
D|------------6\--6\-----------------------------------------6\---6\--------|
A|-6-6\4-4\------------1-1/3-3/4-4--4-4--4-4-4---6-6\4-4--------------------|
E|---------8-6--6---6------------------------------------8-6----6----6------|

G|--------------------------------------------------------------------------|
D|------------------------------------------1-------------------------------|
A|-1-1/4-4\---------------------1-1/4-4/6\------------1-1/4-4/8/9-9--9-9-9-9|
E|---------4-4---4---4--4-4-4-4-----------1---1-1-1-1-----------------------|

G|--------------------------------------------------------------------------|
D|--------------------------------------------------------------------------|
A|-1-1/4-4\----------------1-1/4-4/8/9-9--9-9-9-9\-1-1-4-4-6----------------|
E|---------4\1--1--1-1-1-1-----------------------------------1--------------|

Outro
G|--------------------------------------------------------------------------|
D|--------------------------------------------------------------------------|
A|------------------8-6-----------------------------------------------------|
E|-1/8-8-8---8-8-8-8----/8-8-8\/8-8-8\1-------------------------------------|

The interlude is an absolute joy to play and there all kinds of things you can do to mix 
up, like the actual bassist often does. Enjoy!

| /  slide up
| \  slide down
| h  hammer-on
| p  pull-off
| ~  vibrato
| +  harmonic
| x  Mute note
=============================================================================

            
            
Suggest correction
Creating personal tab
Creating personal tab
You can edit any tab online and save it as your Personal.

You can edit, replace or remove any tab part or add personal notes – all changes will be seen only by you.

Personal tabs can be accessed anytime from any device, even offline.
Learn more »
Give kudos to tab author, rate the tab!
1 2 3 4 5
comments
print report bad tab
guest
You may want to rate the tab now too:
select rating
Wanna post a correction for this tab? Suggest correction