Oops, an error
Loading. Please wait.

Mr Moon chords

version 2
version 2

Whole song

Interactive

3,859 views 1 this week
no commentswrite comment
1 2 3 4 5
1 last vote to show rating
add to favorites
×
Save as Personal and add changes to this tab that will be seen only by you. Learn more ›
×
You can save this tab as Personal to edit and correct it or add notes. All changes will be seen only by you. Learn more »
launch autoscroll
font size
0
reset
transpose
0
reset
display chords
guitar tuner
edit
Autoscroll
slow
fast
+/-
esc
set tempo
stop
Author
Difficulty
Strumming
There is no strumming pattern for this song yet. and get +5 IQ
Intro : Bm A   G   E


Verse 1 :
Bm A         G              E
Mr Moon, Mr Moon, maybe your time is coming 
Bm A         G                         E
Mr Moon, Mr Moon, what’s happening in that room
Bm                 A                G                E
Well search your heart, before you die, before your time fades away
Bm      A         G                  E
It was given as a promise to each and every man


Chorus :
D                           A
“I wanna love you but I’m growing old
Bm                             G
Ten little soldiers’ screaming in my soul” 
D                             A
Will she come over when it’s time to go
Bm                         G           E  G
Come on and show me little drummerboy, Mr Moon 


Bridge :
e|-----------------|
B|-----------------|
G|-----------------|
D|-----------------|
A|-----------------|
E|--3---3-3-2-1-0--|

Mr Moon, Mr Moon 

F#GF# F#GF# F#GF#G


Verse 2 :
Bm         A                 G                 E
Sad but true, sad  but true, you’re telling me what to do 
Bm                  A                     G            E
I’ve learned my lesson, that stupid question, now it hurts my pride
Bm             A                    G              E
And you’re a girl, a serious girl, showing me the world
Bm           A               G                   E
Oh my love, you’re so tired, but you must think quiet 


Chorus :
D                           A
“I wanna love you but I’m growing old
Bm                             G
Ten little soldiers’ screaming in my soul” 
D                             A
Will she come over when it’s time to go
Bm                         G           E  G
Come on and show me little drummerboy, Mr Moon 


Bridge :
e|-----------------|
B|-----------------|
G|-----------------|
D|-----------------|
A|-----------------|
E|--3---3-3-2-1-0--|

Mr Moon, Mr Moon 

F#GF# F#GF# F#GF#G


Solo :  
e|---------------------------------------------------------|
B|---------------------------------7-----------------------|
G|-b11-r9p7-----7-7---7-7---7--b11--r9p7----7---7----------|
D|----------9-9-----9-----9--------------9----9----7/8/9~--|
A|---------------------------------------------------------|
E|---------------------------------------------------------|

e|-----------------------------9---9---9----9-10-12-b14r12-9-9-9-----------|
B|----------------------10-b12--b12-b12-b12-----------------------7--------|
G|---7-9-b11r9p7-9-b11----------------------------------------------10-9~--|
D|-/9----------------------------------------------------------------------|
A|-------------------------------------------------------------------------|
E|-------------------------------------------------------------------------|

Mr Moon 


Bridge :
e|-----------------|
B|-----------------|
G|-----------------|
D|-----------------|
A|-----------------|
E|--3---3-3-2-1-0--|

Mr Moon 

e|-----------------|
B|-----------------|
G|-----------------|
D|-----------------|
A|-----------------|
E|--3---3-3-2-1-0--|

Mr Moon 


Chorus :
D                           A
“I wanna love you but I’m growing old
Bm                             G
Ten little soldiers’ screaming in my soul” 
D                             A
Will she come over when it’s time to go
Bm                         G           E  G
Come on and show me little drummerboy, Mr Moon 

D                           A
“I wanna love you but I’m growing old
Bm                             G
Ten little soldiers’ screaming in my soul”
D                          A                    
The day is using up its final breath 
Bm                        G                     E  G
I’ve never been so sure I’ve never doubted you, Mr Moon


End : 
e|-------------------|
B|-------------------|
G|-------------------|
D|-------------------|
A|-------------------|
E|---3---3-3-2-1-0---| 

Mr Moon Mr Moon
F# G F#  F# G F#  F# G F# G A Bm

            
            
Suggest correction
Creating personal tab
Creating personal tab
You can edit any tab online and save it as your Personal.

You can edit, replace or remove any tab part or add personal notes – all changes will be seen only by you.

Personal tabs can be accessed anytime from any device, even offline.
Learn more »
Give kudos to tab author, rate the tab!
1 2 3 4 5
comments
print report bad tab
guest
You may want to rate the tab now too:
select rating
Wanna post a correction for this tab? Suggest correction