Oops, an error
Loading. Please wait.

Strovtag I Hembygden chords

version 2
version 2

Whole song

7,553 views 15 this week
no commentswrite comment
1 2 3 4 5
x 3
add to favorites
×
Save as Personal and add changes to this tab that will be seen only by you. Learn more ›
×
You can save this tab as Personal to edit and correct it or add notes. All changes will be seen only by you. Learn more »
launch autoscroll
font size
0
reset
transpose
0
reset
simplify chords
display chords
guitar tuner
edit
Autoscroll
slow
fast
+/-
esc
set tempo
stop
Strumming
There is no strumming pattern for this song yet. and get +5 IQ
Sinnesjukt skön låt att spela!
Introt stämmer inte riktigt men låter riktigt bra, skriv gärna en kommentar så kan jag ändra!

Capo: 4

    C: 032010
Fmaj7: 003210
   Em: 022000
   Dm: 000231

När C* kommer i versen spelar du så här: 
e|-------------0---------|
b|-----1---3-----3---1---|
g|-------0---0-----0-----|
D|-----------------------|
A|---3-------------------|
E|-----------------------|




Intro:         C                 Fmaj7            Em         Dm                 C
e|-------------0-------------------0-----------------0---0h1----------------------0--------|
b|-----1---3-----3---1-----1---3-----3---1p0-----0-----------3---3-0------1---3-----3---1--|
g|-------0---0-----0---------2---2-----0-----------0-----------2------------0---0-----0----| X2
D|-----------------------3-----------------------------------------------------------------|
A|---3------------------------------------------------------------------3------------------|
E|---------------------------------------------0-------------------------------------------|


       C                    Fmaj7
Det är skimmer i molnen och glitter i sjön,
       Em        Dm           C*
det är ljus över stränder och näs,
    C                       Fmaj7    
och omkring står den härliga skogen grön
      Em       Dm       C*
bakom ängarnas gungande gräs.

        Am                     Em
Och med sommar och skönhet och skogsvindsackord
         Dm                     G
står min hembygd och hälsar mig glad,
        Am                      Em
var mig hälsad,  men var är min faders gård,
       Dm                   G
det är tomt bakom lönnarnas rad.


..Och så vidare :)

            
            
Suggest correction
Creating personal tab
Creating personal tab
You can edit any tab online and save it as your Personal.

You can edit, replace or remove any tab part or add personal notes – all changes will be seen only by you.

Personal tabs can be accessed anytime from any device, even offline.
Learn more »
Give kudos to tab author, rate the tab!
1 2 3 4 5
comments
print report bad tab
guest
You may want to rate the tab now too:
select rating
Wanna post a correction for this tab? Suggest correction