Oops, an error
Loading. Please wait.

Autumns First Morn tab

64 views 1 this week
no commentswrite comment
1 2 3 4 5
3 more votes to show rating
add to favorites
×
Save as Personal and add changes to this tab that will be seen only by you. Learn more ›
×
You can save this tab as Personal to edit and correct it or add notes. All changes will be seen only by you. Learn more »
launch autoscroll
font size
0
reset
how to read this tab
guitar tuner
edit
Autoscroll
slow
fast
+/-
esc
set tempo
stop
Author
Difficulty
About this tab version
For this version, a steel string guitar is used in place of a mandolin. Was this info helpful? Yes No
Written by MandoPony (Andrew Stein) for his semi-animated story "Thatch and Dial".
The original was performed on mandolin alongside guitar, but this version
will be played on nylon and steel string guitars. (For those with a cutaway, you lucked out)

Guitar 1 (played on steel string) is shown first, and Guitar 2 (played on nylon string) right after.
The legend for the tab is at the bottom of the page.

Time is something like 4/4  
Tempo is 170 
I used the distance between the tabbed notes to point out note duration 
instead of using letters

(Guitar 1) 
(Steel String)
[Intro]
e|--17--------|-------------------------------------|-----------------------------|
B|--15--------|-----10----10----10--------10----10--|-------10---10------10---10--|
G|------------|-------------------------------------|-----------------------------|
D|------------|--12----12----12----12--12----12-----|--9--9----9----9--9----9-----|
A|------------|-------------------------------------|-----------------------------|
E|------------|-------------------------------------|-----------------------------|

e|-----------------------------------|------------------------------|
B|---------10----10--------10----10--|---------10----10---------10--|
G|-----------------------------------|------------------------------|
D|--10--10----10----10--10----10-----|--10--10----10----10--12------|
A|-----------------------------------|------------------------------|
E|-----------------------------------|------------------------------|

e|-----------------------------------|-----------------------------|
B|---------10----10--------10----10--|-------10---10------10---10--|
G|-----------------------------------|-----------------------------|
D|--12--12----12----12--12----12-----|--9--9----9----9--9----9-----|
A|-----------------------------------|-----------------------------|
E|-----------------------------------|-----------------------------|

e|-----------------------------------|---------12--10-17-----------|
B|---------10----10--------10----10--|----------------15-----------|
G|-----------------------------------|----------------14-----------|
D|--10--10----10----10--10----10-----|--10--12---------------------|
A|-----------------------------------|-----------------------------|
E|-----------------------------------|-----------------------------|

[Refrain 1]
e|--------------------------------------|--------------------12p10-15-14------|
B|-----------15----15-14p10-------------|-----------15----15------------------|
G|-----14-------------------12-9h11-14--|-----14--------------------------14--|
D|--12----12----12----------------------|--12----12----12---------------------|
A|--------------------------------------|-------------------------------------|
E|--------------------------------------|-------------------------------------|

e|--------------------------------------|--------------------------14-15/19-14--|
B|-----------15----15-14p10-------------|-----------------12-14-15--------------|
G|-----14-------------------12-9h11-14--|--------11-12-14-----------------------|
D|--12----12----12----------------------|--12-14--------------------------------|
A|--------------------------------------|---------------------------------------|
E|--------------------------------------|---------------------------------------|

e|-----14-12-----------------------------|--------------10-9------------------|
B|-----------15-14-12--------------------|-------------------12p10-7-7/12--7--|
G|--------------------14-12----------11--|--12-11-----------------------------|
D|--------------------------11-12-14-----|--------14-12-----------------------|
A|---------------------------------------|------------------------------------|
E|---------------------------------------|------------------------------------|

e|-------9-12-9--------9-12-9-----|-------14-12-14-12--------------------|
B|--8/10--------10-8----------10--|--8/10-------------14-12--------------|
G|--------------------------------|-------------------------14-12-11-----|
D|--------------------------------|----------------------------------14--|
A|--------------------------------|--------------------------------------|
E|--------------------------------|--------------------------------------|

e|--------------------------------------|--------------------12p10-15-14------|
B|-----------15----15-14p10-------------|-----------15----15------------------|
G|-----14-------------------12-9h11-14--|-----14--------------------------14--|
D|--12----12----12----------------------|--12----12----12---------------------|
A|--------------------------------------|-------------------------------------|
E|--------------------------------------|-------------------------------------|

e|--------------------------------------|--------------------------14-15/19-14--|
B|-----------15----15-14p10-------------|-----------------12-14-15--------------|
G|-----14-------------------12-9h11-14--|--------11-12-14-----------------------|
D|--12----12----12----------------------|--12-14--------------------------------|
A|--------------------------------------|---------------------------------------|
E|--------------------------------------|---------------------------------------|

e|-----14-12-----------------------------|--------------10-9------------------|
B|-----------15-14-12--------------------|-------------------12p10-7-7/12--7--|
G|--------------------14-12----------11--|--12-11-----------------------------|
D|--------------------------11-12-14-----|--------14-12-----------------------|
A|---------------------------------------|------------------------------------|
E|---------------------------------------|------------------------------------|

e|-------9-12-9--------9-12-9-----|-------14-12-14-12--------------------|
B|--8/10--------10-8----------10--|--8/10-------------14-12--------------|
G|--------------------------------|-------------------------14-12-11-----|
D|--------------------------------|----------------------------------14--|
A|--------------------------------|--------------------------------------|
E|--------------------------------|--------------------------------------|

[Bridge]
e|-----------12--------------12--------|---------------------12-------|
B|-------------------------------------|-------10---10----10----10----|
G|-----14----------14--------------14--|------------------------------|
D|--12----12----12----12--12----12-----|--9--9----9-----9----------9--|
A|-------------------------------------|------------------------------|
E|-------------------------------------|------------------------------|

e|-----------------------------------|------------------12-14-15-14-12-----|
B|---------10----10--------10----10--|---------10----------------------15--|
G|-----------------------------------|-------------------------------------|
D|--10--10----10----10--10----10-----|--10--10----12-10--------------------|
A|-----------------------------------|-------------------------------------|
E|-----------------------------------|-------------------------------------|

e|---------12--10--------10g12-10--|--------10-----12--10-10g12--10--|
B|------10------------10-----------|-----10-----10-------------------|
G|---------------------------------|---------------------------------|
D|--12------------12---------------|--9------------------------------|
A|---------------------------------|---------------------------------|
E|---------------------------------|---------------------------------|

e|---------10----10-12--10----10-----|---------10----10-17---12---|
B|------10----10-----------10----10--|------10----10----15--------|
G|-----------------------------------|----------------------------|
D|--10-------------------------------|--10------------------------|
A|-----------------------------------|----------------------------|
E|-----------------------------------|----------------------------|

[Refrain 2]
e|--------------------------------------|--------------------12p10-15-14------|
B|-----------15----15-14p10-------------|-----------15----15------------------|
G|-----14-------------------12-9h11-14--|-----14--------------------------14--|
D|--12----12----12----------------------|--12----12----12---------------------|
A|--------------------------------------|-------------------------------------|
E|--------------------------------------|-------------------------------------|

e|--------------------------------------|--------------------------14-15/19-14--|
B|-----------15----15-14p10-------------|-----------------12-14-15--------------|
G|-----14-------------------12-9h11-14--|--------11-12-14-----------------------|
D|--12----12----12----------------------|--12-14--------------------------------|
A|--------------------------------------|---------------------------------------|
E|--------------------------------------|---------------------------------------|

e|-----14-12-----------------------------|--------------10-9------------------|
B|-----------15-14-12--------------------|-------------------12p10-7-7/12--7--|
G|--------------------14-12----------11--|--12-11-----------------------------|
D|--------------------------11-12-14-----|--------14-12-----------------------|
A|---------------------------------------|------------------------------------|
E|---------------------------------------|------------------------------------|

e|-------9-12-9--------9-12-9-----|-------14-12-14-12--------------------|
B|--8/10--------10-8----------10--|--8/10-------------14-12--------------|
G|--------------------------------|-------------------------14-12-11-----|
D|--------------------------------|----------------------------------14--|
A|--------------------------------|--------------------------------------|
E|--------------------------------|--------------------------------------|

e|--------------------------------------|--------------------12p10-15-14------|
B|-----------15----15-14p10-------------|-----------15----15------------------|
G|-----14-------------------12-9h11-14--|-----14--------------------------14--|
D|--12----12----12----------------------|--12----12----12---------------------|
A|--------------------------------------|-------------------------------------|
E|--------------------------------------|-------------------------------------|

e|--------------------------------------|--------------------------14-15/19-14--|
B|-----------15----15-14p10-------------|-----------------12-14-15--------------|
G|-----14-------------------12-9h11-14--|--------11-12-14-----------------------|
D|--12----12----12----------------------|--12-14--------------------------------|
A|--------------------------------------|---------------------------------------|
E|--------------------------------------|---------------------------------------|

e|-----14-12-----------------------------|--------------10-9------------------|
B|-----------15-14-12--------------------|-------------------12p10-7-7/12--7--|
G|--------------------14-12----------11--|--12-11-----------------------------|
D|--------------------------11-12-14-----|--------14-12-----------------------|
A|---------------------------------------|------------------------------------|
E|---------------------------------------|------------------------------------|

e|-------9-12-9--------9-12-9-----|-------14-12-14-12-12-14-14-14-12-12--|
B|--8/10--------10-8----------10--|--8/10--------------------------------|
G|--------------------------------|--------------------------------------|
D|--------------------------------|--------------------------------------|
A|--------------------------------|--------------------------------------|
E|--------------------------------|--------------------------------------|

[Guitar 2 Solo]
e|--14--12-14p12-12-12h14-12-12h14-12--|--12h14-12-12h14-12-12h14-12-12h14-12--|
B|-------------------------------------|---------------------------------------|
G|-------------------------------------|---------------------------------------|
D|-------------------------------------|---------------------------------------|
A|-------------------------------------|---------------------------------------|
E|-------------------------------------|---------------------------------------|

e|--12h14-12-12h14-12-12--x-x-x-x--|--12h14-14-x-x-12-12h14-14-x-x-x--|
B|------------------------x-x-x-x--|--10----10-x-x-10-10----10-x-x-x--|
G|---------------------------------|----------------------------------|
D|---------------------------------|----------------------------------|
A|---------------------------------|----------------------------------|
E|---------------------------------|----------------------------------|

e|--12h14-14-14-14-12-14p12-10-10h12-x--|--12h14-14-x-x-x-12h14-x-x-x-x--|
B|--10----10-10-10----10-------------x--|--10----10-x-x-x-10----x-x-x-x--|
G|--------------------------------------|--------------------------------|
D|--------------------------------------|--------------------------------|
A|--------------------------------------|--------------------------------|
E|--------------------------------------|--------------------------------|

e|--12h14-x-x-x-x-14p12-10-12--x--|--x-x-x-14--x-x-x-x-19--x--|
B|--10----x-x-x-x-10-----------x--|--x-x-x-15--x-x-x-x-20--x--|
G|--------------------------------|---------------------------|
D|--------------------------------|---------------------------|
A|--------------------------------|---------------------------|
E|--------------------------------|---------------------------|

e|--x-x-x-17--x-x-x-x-15--x--|--12--12-12-x-x-12--12-12-12-x--|
B|--x-x-x-17--x-x-x-x-15--x--|--10--10-10-x-x-10--10-10-10-x--|
G|---------------------------|---9---9--9-x-x--9---9--9--9-x--|
D|---------------------------|--------------------------------|
A|---------------------------|--------------------------------|
E|---------------------------|--------------------------------|

e|--12--12-12-12-x-12--12-12-12-x--|--12--12-x-x-x-12--12-x-x-x--|
B|--10--10-10-10-x-10--10-10-10-x--|--10--10-x-x-x-10--10-x-x-x--|
G|---9---9--9--9-x--9---9--9--9-x--|---9---9-x-x-x--9---9-x-x-x--|
D|---------------------------------|-----------------------------|
A|---------------------------------|-----------------------------|
E|---------------------------------|-----------------------------|

e|--12--12-x-x-10-14-14-12-10-12---|--12/14-14-14-14-x-14--14-14-14-x--|
B|--10--10-x-x-10-10---------------|--10----10-10-10-x-10--10-10-10-x--|
G|---9---9-x-x---------------------|---9-----9--9--9-x--9---9--9--9-x--|
D|---------------------------------|-----------------------------------|
A|---------------------------------|-----------------------------------|
E|---------------------------------|-----------------------------------|

e|--14--14-14-14-10-14p12p10-10h12-10--|--10--10----10---------------------|
B|--10--10-10-10-10-10-----------------|---------10----10-14--14----14-----|
G|---9---9-----------------------------|-------------------------14----14--|
D|-------------------------------------|-----------------------------------|
A|-------------------------------------|-----------------------------------|
E|-------------------------------------|-----------------------------------|

e|--------------------------------|--12--12-12-12-x-12--12-12-12-x--|
B|--12--12----12----10----12--10--|--10--10-10-10-x-10--10-10-10-x--|
G|---------12----12--9--9--9------|---9---9--9--9-x--9---9--9--9-x--|
D|--------------------------------|---------------------------------|
A|--------------------------------|---------------------------------|
E|--------------------------------|---------------------------------|

e|--12--12-12-12-x-12--10-10h12---|
B|--10--10-10-10-x-10-----10------|
G|---9---9--9--9-x--9------9------|
D|--------------------------------|
A|--------------------------------|
E|--------------------------------|

[Refrain 3]
e|--------------------------------------|--------------------12p10-15-14------|
B|-----------15----15-14p10-------------|-----------15----15------------------|
G|-----14-------------------12-9h11-14--|-----14--------------------------14--|
D|--12----12----12----------------------|--12----12----12---------------------|
A|--------------------------------------|-------------------------------------|
E|--------------------------------------|-------------------------------------|

e|--------------------------------------|--------------------------14-15/19-14--|
B|-----------15----15-14p10-------------|-----------------12-14-15--------------|
G|-----14-------------------12-9h11-14--|--------11-12-14-----------------------|
D|--12----12----12----------------------|--12-14--------------------------------|
A|--------------------------------------|---------------------------------------|
E|--------------------------------------|---------------------------------------|

e|-----14-12-----------------------------|--------------10-9------------------|
B|-----------15-14-12--------------------|-------------------12p10-7-7/12--7--|
G|--------------------14-12----------11--|--12-11-----------------------------|
D|--------------------------11-12-14-----|--------14-12-----------------------|
A|---------------------------------------|------------------------------------|
E|---------------------------------------|------------------------------------|

e|-------9-12-9--------9-12-9-----|-------14-12-14-12-12h14-12-----------|
B|--8/10--------10-8----------10--|--8/10----------------------14-12-10--|
G|--------------------------------|--------------------------------------|
D|--------------------------------|--------------------------------------|
A|--------------------------------|--------------------------------------|
E|--------------------------------|--------------------------------------|

e|--------------------------------------|--------------------12p10-15-14------|
B|-----------15----15-14p10-------------|-----------15----15------------------|
G|-----14-------------------12-9h11-14--|-----14--------------------------14--|
D|--12----12----12----------------------|--12----12----12---------------------|
A|--------------------------------------|-------------------------------------|
E|--------------------------------------|-------------------------------------|

e|--------------------------------------|--------------------------14-15/19-14--|
B|-----------15----15-14p10-------------|-----------------12-14-15--------------|
G|-----14-------------------12-9h11-14--|--------11-12-14-----------------------|
D|--12----12----12----------------------|--12-14--------------------------------|
A|--------------------------------------|---------------------------------------|
E|--------------------------------------|---------------------------------------|

e|-----14-12-----------------------------|--------------10-9------------------|
B|-----------15-14-12--------------------|-------------------12p10-7-7/12--7--|
G|--------------------14-12----------11--|--12-11-----------------------------|
D|--------------------------11-12-14-----|--------14-12-----------------------|
A|---------------------------------------|------------------------------------|
E|---------------------------------------|------------------------------------|

e|-------9-12-9--------9-12-9-----|-------14-12-14-12--------------------|
B|--8/10--------10-8----------10--|--8/10-------------14-12--------------|
G|--------------------------------|-------------------------14-12-11-----|
D|--------------------------------|----------------------------------14--|
A|--------------------------------|--------------------------------------|
E|--------------------------------|--------------------------------------|

e|------------------|
B|------------------|
G|------------------|
D|--12--------------|
A|------------------|
E|------------------|

(Guitar 2) 
(Nylon String)

[Intro]
e|-------------|--------------------|-----------2--------|
B|-------------|-----------7--------|--------------------|
G|--7----------|--------7-----7-----|--------4-----4-----|
D|--7----------|--7--7-----------7--|--4--4-----------4--|
A|--5----------|--5-----------------|--2-----------------|
E|-------------|--------------------|--------------------|

e|--------------------|-------------------|--------------------|--------------------|
B|-----------5--------|----------5--------|-----------7--------|-----------3--------|
G|--------5-----5-----|-------5-----5-----|--------7-----7-----|--------4-----4-----|
D|--5--5-----------5--|--5-------------5--|--7--7-----------7--|--4--4-----------4--|
A|--3-----------------|--3----------------|--5-----------------|--2-----------------|
E|--------------------|-------------------|--------------------|--------------------|

e|--------------------|-----------------------|
B|-----------5--------|----------5------------|
G|--------5-----5-----|-------5---------------|
D|--5--5-----------5--|--5--------------------|
A|--3-----------------|--3--------------------|
E|--------------------|-----------------------|

[Refrain 1]
e|---------------|-----------------|---------------|--2------------|
B|---------------|--7--------------|---------------|--3------------|
G|---------------|--7--------------|---------------|--4------------|
D|--7------------|--7--------------|--4------------|--4------------|
A|--5------------|--5--------------|--2------------|--2------------|
E|--5------------|--5--------------|--2------------|--2------------|

e|---------------|--3--------------|-------5-------5---|-------5---------|
B|---------------|--3--------------|-------------------|-----------------|
G|---------------|--4--------------|-------------------|-----------------|
D|--5------------|--5--------------|-----7-------7-----|-----7-----------|
A|--5------------|--5--------------|--7-------7--------|--7--------------|
E|--3------------|--3--------------|--5-------5--------|--5-------7h9----|

e|------------------|------------------|-------------2----|-------------2----|
B|------------------|-------------7----|-------3---3------|-------3---3------|
G|-------7---7-7----|--7----7---7-7----|--4--4---4--------|--4--4---4--------|
D|--7--7---7---7----|--7--7---7---7----|--4---------------|--4---------------|
A|--5----------5----|--5----------5----|--2---------------|--2---------------|
E|--5----------5----|------------------|------------------|------------------|

e|-------------------------|-------------------------|
B|-------3---3------3---3--|-------3---3------3---3--|
G|-----4---4------4---4----|-----4---4------4---4----|
D|--5----------5-----------|--5----------5-----------|
A|--5----------------------|--5----------------------|
E|--3----------------------|--3----------------------|

e|------------|-------------|
B|------------|-------------|
G|------------|-------------|
D|------------|-------------|
A|------------|-------7-----|
E|--5----3----|--2----------|

[Bridge]
e|-------------------------|-------------2-----------|
B|-------------7-----------|-------3---3------3---3--|
G|-------7---7------7---7--|-----4---4------4---4----|
D|--7--7---7------7---7----|--4----------------------|
A|--5----------------------|--2----------------------|
E|-------------------------|-------------------------|

e|-------------------------|-----------------------|
B|-------------------------|-----------------------|
G|-------5---5------5---5--|-------5---5-----------|
D|--5--5---5---5--5---5----|--5--5---5---5---------|
A|--3----------------------|--3--------------------|
E|-------------------------|-----------------------|

e|-------------------------|-----------------------|
B|---------7---7-----------|---------3---3---------|
G|-------7---7-7-----------|-------4---4-4---------|
D|--7--7-------7-----------|--4--4-------4---------|
A|--5----------------------|--2--------------------|
E|-------------------------|-----------------------|

e|-------------------------|-----------------------|
B|-------------5-----------|-------------5---------|
G|-------5---5----5---5----|-------5---5-----------|
D|--5--5---5--------5---5--|--5--5---5-------------|
A|--3----------------------|--3--------------------|
E|-------------------------|-----------------------|

[Refrain 2]
e|-------------------------|-------------------------|
B|--7--7-x-x-x-7--7-x-x-x--|--7--7-x-x-x-7--7-x-x-x--|
G|--7--7-x-x-x-7--7-x-x-x--|--7--7-x-x-x-7--7-x-x-x--|
D|--7--7-x-x-x-7--7-x-x-x--|--7--7-x-x-x-7--7-x-x-x--|
A|--5--5-x-x-x-5--5-x-x-x--|--5--5-x-x-x-5--5-x-x-x--|
E|-------------------------|-------------------------|

e|--2--2-x-x-x-2--2-x-x-x--|--2--2-x-x-x-2--2-x-x-x--|
B|--3--3-x-x-x-3--3-x-x-x--|--3--3-x-x-x-3--3-x-x-x--|
G|--4--4-x-x-x-4--4-x-x-x--|--4--4-x-x-x-4--4-x-x-x--|
D|--4--4-x-x-x-4--4-x-x-x--|--4--4-x-x-x-4--4-x-x-x--|
A|--2--2-x-x-x-2--2-x-x-x--|--2--2-x-x-x-2--2-x-x-x--|
E|--2--2-x-x-x-2--2-x-x-x--|--2--2-x-x-x-2--2-x-x-x--|

e|--3--3-x-x-x-3--3-x-x-x--|--3--3-x-x-x-3--3-x-x-x--|
B|--3--3-x-x-x-3--3-x-x-x--|--3--3-x-x-x-3--3-x-x-x--|
G|--4--4-x-x-x-4--4-x-x-x--|--4--4-x-x-x-4--4-x-x-x--|
D|--5--5-x-x-x-5--5-x-x-x--|--5--5-x-x-x-5--5-x-x-x--|
A|--5--5-x-x-x-5--5-x-x-x--|--5--5-x-x-x-5--5-x-x-x--|
E|--3--3-x-x-x-3--3-x-x-x--|--3--3-x-x-x-3--3-x-x-x--|

e|--5--5-x-x-5-3--3-x-x-3--|--5--5-x-x-x-5--5-x-x-x--|
B|--5--5-x-x-5-3--3-x-x-3--|--5--5-x-x-x-5--5-x-x-x--|
G|--6--6-x-x-6-4--4-x-x-4--|--6--6-x-x-x-6--6-x-x-x--|
D|--7--7-x-x-7-5--5-x-x-5--|--7--7-x-x-x-7--7-x-x-x--|
A|--7--7-x-x-7-5--5-x-x-5--|--7--7-x-x-x-7--7-x-x-x--|
E|--5--5-x-x-5-3--3-x-x-3--|--5--5-x-x-x-5--5-x-x-x--|

e|-------------------------|-------------------------|
B|--7--7-x-x-x-7--7-x-x-x--|--7--7-x-x-x-7--7-x-x-x--|
G|--7--7-x-x-x-7--7-x-x-x--|--7--7-x-x-x-7--7-x-x-x--|
D|--7--7-x-x-x-7--7-x-x-x--|--7--7-x-x-x-7--7-x-x-x--|
A|--5--5-x-x-x-5--5-x-x-x--|--5--5-x-x-x-5--5-x-x-x--|
E|-------------------------|-------------------------|

e|--2--2-x-x-x-2--2-x-x-x--|--2--2-x-x-x-2--2-x-x-x--|
B|--3--3-x-x-x-3--3-x-x-x--|--3--3-x-x-x-3--3-x-x-x--|
G|--4--4-x-x-x-4--4-x-x-x--|--4--4-x-x-x-4--4-x-x-x--|
D|--4--4-x-x-x-4--4-x-x-x--|--4--4-x-x-x-4--4-x-x-x--|
A|--2--2-x-x-x-2--2-x-x-x--|--2--2-x-x-x-2--2-x-x-x--|
E|--2--2-x-x-x-2--2-x-x-x--|--2--2-x-x-x-2--2-x-x-x--|

e|--3--3-x-x-x-3--3-x-x-x--|--3--3-x-x-x-3--3-x-x-x--|
B|--3--3-x-x-x-3--3-x-x-x--|--3--3-x-x-x-3--3-x-x-x--|
G|--4--4-x-x-x-4--4-x-x-x--|--4--4-x-x-x-4--4-x-x-x--|
D|--5--5-x-x-x-5--5-x-x-x--|--5--5-x-x-x-5--5-x-x-x--|
A|--5--5-x-x-x-5--5-x-x-x--|--5--5-x-x-x-5--5-x-x-x--|
E|--3--3-x-x-x-3--3-x-x-x--|--3--3-x-x-x-3--3-x-x-x--|

e|--5---5-5-5-3--3--3-3--|--5---------------------|
B|--5---5-5-5-3--3--3-3--|--5---------------------|
G|--6---6-6-6-4--4--4-4--|--6---------------------|
D|--7---7-7-7-5--5--5-5--|--7---------------------|
A|--7---7-7-7-5--5--5-5--|--7---------------------|
E|--5---5-5-5-3--3--3-3--|--5---------------------|

[Solo]
e|--0--------------------|------------------------|
B|--2--------------------|------------------------|
G|--2--------------------|---------------------2--|
D|--2---------------2-0--|--2--------------2-4----|
A|--0--------------------|------------------------|
E|--0--------------------|------------------------|

e|-----------------------|-------------2-5--5-7p5-3--|
B|------------0h2--------|--2/3--2-3h5---------------|
G|--2--------------------|---------------------------|
D|-----------------------|---------------------------|
A|-----------------------|---------------------------|
E|-----------------------|---------------------------|

e|--3h5-------3-2---------|-------5--5-7-9/10--9--7--|
B|----------------5-3--5--|--5/7---------------------|
G|------------------------|--------------------------|
D|------------------------|--------------------------|
A|------------------------|--------------------------|
E|------------------------|--------------------------|

e|--5h7--5--3p2---2-----|-----------------------|
B|--------------5----5--|--3--3-2---2-----------|
G|----------------------|---------4---4-2-4--2--|
D|----------------------|-----------------------|
A|----------------------|-----------------------|
E|----------------------|-----------------------|

e|------------------------|-----------------0-2--|
B|---------------------3--|--2--2-3-5-5--5-------|
G|--------------2--2-4----|----------------------|
D|--5-4-2---2-4-----------|----------------------|
A|--------5---------------|----------------------|
E|------------------------|----------------------|

e|--2h3--3--0-2-3--3h5--3--|--2---0-0h2--2------|
B|-------------------------|-----------------3--|
G|-------------------------|--------------------|
D|-------------------------|--------------------|
A|-------------------------|--------------------|
E|-------------------------|--------------------|

e|----------------------|-----------------------|
B|--3h5--5--2--3--5--2--|--3--2--3-2---------2--|
G|----------------------|------------4--4--4----|
D|----------------------|-----------------------|
A|----------------------|-----------------------|
E|----------------------|-----------------------|

e|-------------2--0--2--|--3----2-3-5----3-5--|
B|--3----2-3-5----------|---------------------|
G|----------------------|---------------------|
D|----------------------|---------------------|
A|----------------------|---------------------|
E|----------------------|---------------------|

e|--7----5-7-9--10--12--|--9--9--9-10-12--12--12-14--|
B|----------------------|----------------------------|
G|----------------------|----------------------------|
D|----------------------|----------------------------|
A|----------------------|----------------------------|
E|----------------------|----------------------------|

e|--15--15---17-17----------------|
B|--------------------------------|
G|--------------------------------|
D|--------------------------------|
A|--------------------------------|
E|--------------------------------|

[Refrain 3]
e|------------------|------------------|-------------2----|-------------2----|
B|------------------|-------------7----|-------3---3------|-------3---3------|
G|-------7---7-7----|--7----7---7-7----|--4--4---4--------|--4--4---4--------|
D|--7--7---7---7----|--7--7---7---7----|--4---------------|--4---------------|
A|--5----------5----|--5----------5----|--2---------------|--2---------------|
E|--5----------5----|------------------|------------------|------------------|

e|-------------------------|-------------------------|
B|-------3---3------3---3--|-------3---3------3---3--|
G|-----4---4------4---4----|-----4---4------4---4----|
D|--5----------5-----------|--5----------5-----------|
A|--5----------------------|--5----------------------|
E|--3----------------------|--3----------------------|

e|------------|-------------|
B|------------|-------------|
G|------------|-------------|
D|------------|-------------|
A|------------|-------7-----|
E|--5----3----|--2----------|

e|-------------------------|-------------------------|
B|--7--7-x-x-x-7--7-x-x-x--|--7--7-x-x-x-7--7-x-x-x--|
G|--7--7-x-x-x-7--7-x-x-x--|--7--7-x-x-x-7--7-x-x-x--|
D|--7--7-x-x-x-7--7-x-x-x--|--7--7-x-x-x-7--7-x-x-x--|
A|--5--5-x-x-x-5--5-x-x-x--|--5--5-x-x-x-5--5-x-x-x--|
E|-------------------------|-------------------------|

e|--2--2-x-x-x-2--2-x-x-x--|--2--2-x-x-x-2--2-x-x-x--|
B|--3--3-x-x-x-3--3-x-x-x--|--3--3-x-x-x-3--3-x-x-x--|
G|--4--4-x-x-x-4--4-x-x-x--|--4--4-x-x-x-4--4-x-x-x--|
D|--4--4-x-x-x-4--4-x-x-x--|--4--4-x-x-x-4--4-x-x-x--|
A|--2--2-x-x-x-2--2-x-x-x--|--2--2-x-x-x-2--2-x-x-x--|
E|--2--2-x-x-x-2--2-x-x-x--|--2--2-x-x-x-2--2-x-x-x--|

e|--3--3-x-x-x-3--3-x-x-x--|--3--3-x-x-x-3--3-x-x-x--|
B|--3--3-x-x-x-3--3-x-x-x--|--3--3-x-x-x-3--3-x-x-x--|
G|--4--4-x-x-x-4--4-x-x-x--|--4--4-x-x-x-4--4-x-x-x--|
D|--5--5-x-x-x-5--5-x-x-x--|--5--5-x-x-x-5--5-x-x-x--|
A|--5--5-x-x-x-5--5-x-x-x--|--5--5-x-x-x-5--5-x-x-x--|
E|--3--3-x-x-x-3--3-x-x-x--|--3--3-x-x-x-3--3-x-x-x--|

e|--5--5-5-5-5-5--5-5-5-5--|--5--5-5-5-5-5--5-5-5-5--|
B|--5--5-5-5-5-5--5-5-5-5--|--5--5-5-5-5-5--5-5-5-5--|
G|--6--6-6-6-6-6--6-6-6-6--|--6--6-6-6-6-6--6-6-6-6--|
D|--7--7-7-7-7-7--7-7-7-7--|--7--7-7-7-7-7--7-7-7-7--|
A|--7--7-7-7-7-7--7-7-7-7--|--7--7-7-7-7-7--7-7-7-7--|
E|--5--5-5-5-5-5--5-5-5-5--|--5--5-5-5-5-5--5-5-5-5--|

e|--2---------------|
B|--3---------------|
G|--2---------------|
D|--4---------------|
A|--5---------------|
E|--2---------------|


************************************

| p  Pull-off
| h  Hammer-on
| /  Slide up
| g  Grace note
| x - muted, struck string

************************************

            
            
Suggest correction
Creating personal tab
Creating personal tab
You can edit any tab online and save it as your Personal.

You can edit, replace or remove any tab part or add personal notes – all changes will be seen only by you.

Personal tabs can be accessed anytime from any device, even offline.
Learn more »
Give kudos to tab author, rate the tab!
1 2 3 4 5
comments
print report bad tab
guest
You may want to rate the tab now too:
select rating
Wanna post a correction for this tab? Suggest correction