Oops, an error
Loading. Please wait.

Do Wah Diddy Diddy chords

version 2
version 2

Whole song

Interactive

5,365 views 3 this week
no commentswrite comment
1 2 3 4 5
2 more votes to show rating
add to favorites
×
Save as Personal and add changes to this tab that will be seen only by you. Learn more ›
×
You can save this tab as Personal to edit and correct it or add notes. All changes will be seen only by you. Learn more »
launch autoscroll
font size
0
reset
transpose
0
reset
display chords
guitar tuner
edit
Autoscroll
slow
fast
+/-
esc
set tempo
stop
Author
Strumming
There is no strumming pattern for this song yet. and get +5 IQ
My hands have a hard time making chords like B, so I play this way to make it a little 
 It sounds goo, I think. For young Beginners.

Manfred Mann
"Do Wah Diddy Diddy"


Intro      Em           A
e|----0-0-0-0-0-0-----0--0-------------------|
B|----0-0-0-0-0-0-----2--2-----4-------------|
G|----1-1-1-1-1-1-----2--2-----4-------------|
D|----2-2-2-2-2-2-----2--2-----2-------------|
A|----2-2-2-2-2-2-----0--0-------------------|
E|----0-0-0-0-0-0-----X--X-------------------|

There she was, just-a walkin' down the street

           Em           A
e|----0-0-0-0-0-0-----0--0-------------------|
B|----0-0-0-0-0-0-----2--2-----4-------------|
G|----1-1-1-1-1-1-----2--2-----4-------------|  X3
D|----2-2-2-2-2-2-----2--2-----2-------------|
A|----2-2-2-2-2-2-----0--0-------------------|
E|----0-0-0-0-0-0-----X--X-------------------|

Singin' (do wah diddy, diddy dum, diddy do)
Snappin' her fingers and shufflin' her feet
Singin' (do wah diddy, diddy dum, diddy do)

(pause)
She looked good (she looked good)
She looked fine (she looked fine)
       Em              A
e|----0--0------------0----------------------|
B|----0--0------------2----------------------|
G|----1--1------------2----------------------|  X2
D|----2--2------------2----------------------|
A|----2--2------------0----------------------|
E|----0--0------------X----------------------|

She looked good, she looked fine
And I nearly lost my mind


Listen to the song and use these chords.  Their may be some minor differences as the 
plays but it’s easy to figure out with these basic chords.  Now go impress grandma.

            
            
Suggest correction
Creating personal tab
Creating personal tab
You can edit any tab online and save it as your Personal.

You can edit, replace or remove any tab part or add personal notes – all changes will be seen only by you.

Personal tabs can be accessed anytime from any device, even offline.
Learn more »
Give kudos to tab author, rate the tab!
1 2 3 4 5
comments
print report bad tab
guest
You may want to rate the tab now too:
select rating
Wanna post a correction for this tab? Suggest correction