Oops, an error
Loading. Please wait.

Memories tab

version 1
version 1

Whole song

1,306 views 1 this week
3 commentsread comments
1 2 3 4 5
x 5
add to favorites
×
Save as Personal and add changes to this tab that will be seen only by you. Learn more ›
×
You can save this tab as Personal to edit and correct it or add notes. All changes will be seen only by you. Learn more »
launch autoscroll
font size
0
reset
how to read this tab
guitar tuner
edit
Autoscroll
slow
fast
+/-
esc
set tempo
stop
Band: Manic Drive
Song: Memories
Tabbed : Anto84

A really great song with great lyrics...God bless you!


					(INTRO)

Clean + delay + chorus:


E|------------------------------------------------------------------|
B|------------------------------------------------------------------|
G|--------------------------5-------9-------5--------9-------5------|
D|------9-----5-----9-----5-------9-------5--------9-------5--------|
A|----7-----3-----7-----3-------7-------3-------7--------3----------|
D|--7-----3-----7-----3-------7-------3-------7--------3------------|


					(VERSE)


E|------------------------------------------------------------------|
B|------------------------------------------------------------------|
G|--------------------------5-------9-------5-------9--------5------|
D|------9-----5-----9-----5-------9-------5-------9--------5--------|
A|----7-----3-----7-----3-------7-------3-------7--------3----------|
D|--7-----3-----7-----3-------7-------3-------7--------3------------|

					(PRE-CHORUS)

Distortion:

E|-------------------------------------|
B|-------------------------------------|
G|-------------------------------------|
D|--3-3--3-3--3-3--7-7--7-7--7-7-------|  x4
A|--3-3--3-3--3-3--7-7--7-7--7-7-------|
D|--3-3--3-3--3-3--7-7--7-7--7-7-------|

(I will give all I have because of Your sacrifice...)

					(CHORUS)


E|-----------------------------------------------------|
B|-----------------------------------------------------|
G|-----------------------------------------------------|
D|--10-x-x-10-10--5-x-x-5-5--0-x-0-0--3-3-3--5-5-5-----|  X2
A|--10-x-x-10-10--5-x-x-5-5--0-x-0-0--3-3-3--5-5-5-----|
D|--10-x-x-10-10--5-x-x-5-5--0-x-0-0--3-3-3--5-5-5-----|

(Though my memories may slowly slip away...)

					(VERSE2)


Clean + delay + chorus:

E|-----------------------------------------------------------------|
B|-----------------------------------------------------------------|
G|--------9-----5-----9-----5------9-------5-------9--------5------|
D|------9-----5-----9-----5------9-------5-------9--------5--------|
A|----7-----3-----7-----3------7-------3-------7--------3----------|
D|--7-----3-----7-----3------7-------3-------7--------3------------|


					(PRE-CHORUS)

Distortion:

E|-------------------------------------|
B|-------------------------------------|
G|-------------------------------------|
D|--3-3--3-3--3-3--7-7--7-7--7-7-------|  x4
A|--3-3--3-3--3-3--7-7--7-7--7-7-------|
D|--3-3--3-3--3-3--7-7--7-7--7-7-------|

(I will give all I have because of Your sacrifice...)

					(CHORUS)


E|-----------------------------------------------------|
B|-----------------------------------------------------|
G|-----------------------------------------------------|
D|--10-x-x-10-10--5-x-x-5-5--0-x-0-0--3-3-3--5-5-5-----|  X2
A|--10-x-x-10-10--5-x-x-5-5--0-x-0-0--3-3-3--5-5-5-----|
D|--10-x-x-10-10--5-x-x-5-5--0-x-0-0--3-3-3--5-5-5-----|

(Though my memories may slowly slip away...)

					(BRIDGE)


Light distortion:


E|------------------------------------------------------------------|
B|------------------------------------------------------------------|
G|-10-x-x-10-10--12-12---14-x-x-14-14---7-x-x-7-7---5-5--5-5--5-5---|
D|--x-x-x--x-x----x--x----x-x-x--x--x---x-x-x-x-x---x-x--x-x--x-x---|
A|--8-x-x--8-8---10-10---12-x-x-12-12---5-x-x-5-5---3-3--3-3--3-3---|
D|------------------------------------------------------------------|

E|-----------------------------------------------------|
B|-----------------------------------------------------|
G|-10-x-x-10-10--12-12---14-x-x-14-14---7-x-x-7-7------|
D|--x-x-x--x-x----x--x----x-x-x--x--x---x-x-x-x-x------|
A|--8-x-x--8-8---10-10---12-x-x-12-12---5-x-x-5-5------|
D|-----------------------------------------------------|

Distortion:

E|------------------------|
B|------------------------|
G|------------------------|
D|--3-3-x-x-3-3-x-x-3-3---|
A|--3-3-x-x-3-3-x-x-3-3---|
D|--3-3-x-x-3-3-x-x-3-3---|

E|-------------------------------------------------------------------|
B|-------------------------------------------------------------------|
G|-------------------------------------------------------------------|
D|--8-x-x-8-8--10-10--12-x-x-12-12--5-x-x-5-5--3-3-x-x-3-3-x-x-3-3---|
A|--8-x-x-8-8--10-10--12-x-x-12-12--5-x-x-5-5--3-3-x-x-3-3-x-x-3-3---|
D|--8-x-x-8-8--10-10--12-x-x-12-12--5-x-x-5-5--3-3-x-x-3-3-x-x-3-3---|


(If I go astray, If I run away ...)

					(CHORUS)

Clean + chorus:

E|------------------------------------------------------|
B|------------------------------------------------------|
G|----------------------------7-------------------------|
D|--------10---------5------7---7-------3--------5------|
A|-----10----10----5---5--------------3---3----5---5----|
D|--10-----------5--------0---------3--------5----------|

E|------------------------------------|
B|------------------------------------|
G|----------------------------7-------|
D|--------10---------5------7---7-----|
A|-----10----10----5---5--------------|
D|--10-----------5--------0-----------|

Distortion:

E|--------------------------------------------------------------------|
B|--------------------------------------------------------------------|
G|--------------------------------------------------------------------|
D|--3-3-3--5-5-5-|-10-x-x-10-10--5-x-x-5-5--0-x-0-0--3-3-3--5-5-5-----|  X2
A|--3-3-3--5-5-5-|-10-x-x-10-10--5-x-x-5-5--0-x-0-0--3-3-3--5-5-5-----|
D|--3-3-3--5-5-5-|-10-x-x-10-10--5-x-x-5-5--0-x-0-0--3-3-3--5-5-5-----|

	         (Though my memories...)


E|-------|
B|-------|
G|-------|
D|--10---|
A|--10---|
D|--10---|


(Will always stay the same)

If there are any comments or errors
e-mail me at antonioliviero84@virgilio.it

            
            
Suggest correction
Creating personal tab
Creating personal tab
You can edit any tab online and save it as your Personal.

You can edit, replace or remove any tab part or add personal notes – all changes will be seen only by you.

Personal tabs can be accessed anytime from any device, even offline.
Learn more »
comments
print report bad tab
3 comments total.
0 reply
Siblings 16 Jul 25, 2008 06:27 PM

Nice one Anto84, I had and will have loads of fun playing this. One question, on the Chorus you have the latter part listed as...

D|0-x-0-0--3-3-3--5-5-5-----| X2
A|0-x-0-0--3-3-3--5-5-5-----|
D|0-x-0-0--3-3-3--5-5-5-----|

About this part 3-3-3--5-5-5
3-3-3--5-5-5
3-3-3--5-5-5
should that be how you put it, or should it be should it be...

3-3-3-3--5-5-5-5
3-3-3-3--5-5-5-5
3-3-3-3--5-5-5-5
with four of each?
I've never posted a tab here so it's not like I really know all the technicalities lol, I was just wondering. Thanks :)

0 reply
Pking Lamer 123 Jul 06, 2009 05:51 AM

perfect! i just bought a marshall amplifier with delay function on it, and it sounds great! 5/5

0 reply
mdclay 40 Jul 28, 2009 03:32 PM

Great tab, it's perfect!

"Siblings", well it's a very minor mistake really. The number of strums isn't really a big deal with tabs, well I guess except for solos and such. For chorus and things that just use powerchords like that, tabs are just good for giving you the general idea, not the exact music, which is perfectly fine. Because it sometimes very hard to hear parts during the chorus (The distortion is usually blazing and singers screaming) It usually comes down to interpretation on many times you strum. Hope I've helped! :D

guest
Wanna post a correction for this tab? Suggest correction