Oops, an error
Loading. Please wait.
We have an official All Is Vanity tab made by UG professional guitarists. Check out the tab »
×
204 views 1 this week
no commentswrite comment
1 2 3 4 5
3 more votes to show rating
add to favorites
×
Save as Personal and add changes to this tab that will be seen only by you. Learn more ›
×
You can save this tab as Personal to edit and correct it or add notes. All changes will be seen only by you. Learn more »
launch autoscroll
font size
0
reset
guitar tuner
edit
Autoscroll
slow
fast
+/-
esc
set tempo
stop
Author
All Is Vanity
Journal For Plague Lovers (2009)
Bass Tab
All Tablature below written by Ieuan Jones


Intro

   (drums played on their own here)
G|-----------------------------------|-----------------------------|
D|-----------------------------------|-----------------------------|
A|-----------------------------------|--/5-5---------------5-5-5-5-|
E|-----------------------------------|-----------------------------|


G-------7-----7-------7-----7-------7-----7-------7-----7-|
D---------------------------------------------------------|
A---5-5---5-5-----5-5---5-5-----5-5---5-5-----5-5---5-5---|
E---------------------------------------------------------|

G---------------------------------------------------------|
D-------7-----7-------7-----7-------7-----7-------7-----7-|
A---------------------------------------------------------|
E---5-5---5-5-----5-5---5-5-----5-5---5-5-----5-5---5-5---|

G-------7-----7-------7-----7-------7-----7-------7-----7-|
D---------------------------------------------------------|
A---5-5---5-5-----5-5---5-5-----5-5---5-5-----5-5---5-5---|
E---------------------------------------------------------|

G----------------------------------------------------------------|
D-------7-----7-------7-----7------------------------------------|
A----------------------------------------------------------------|
E---5-5---5-5-----5-5---5-5-----5-5-5-5-5-5-5-5-5-5-5-5-5-5-5-5--|


Verses

G------------------------------------------------------------------|
D------------------------------------------------------------------|
A------------------------------------------------------------------|
E--5-5-5-5-5-5----5-5-5-5-5-5-55-----1-1-1-1-1-1---1-1-1-1-1-1-11--|
                                                                      x2
G------------------------------------------------------------------|
D------------------------------------------------------------------|
A------------------------------------------------------------------|
E--6-6-6-6-6-6----6-6-6-6-6-6-66-----5-5-5-5-5-5--5-8-8-8-8-8-8-8--|



Chorus

G-------------------------------------------------------------|
D-------------------------------------------------------------|
A-----5-5-5-5-5-5-5---------------5-5-5-5-5-5-5---------------|
E-------------------5-5-5-5-5-5-5---------------6-6-6-6-6-6-6-|

G--------------------------------------------------------------------------|
D--------------------------------------------------------------------------|
A---------------3-3-3-3-3-3-3--1---1--1-1--1--1--1-----1---1--1-1--1--1--1-|
E-1-1-1-1-1-1-1------------------------------------------------------------|


For the little solo part after the first chorus, just play the same notes
that are in both of the verses. All of the chorus parts are played in the
same way too, and when the guitar reverts back to the intro riff, the bass
is played exactly the same as it is in the intro.
That just about wraps this tab up. I'm pretty certain it is correct, but
comments are welcome below.

            
            
Suggest correction
Creating personal tab
Creating personal tab
You can edit any tab online and save it as your Personal.

You can edit, replace or remove any tab part or add personal notes – all changes will be seen only by you.

Personal tabs can be accessed anytime from any device, even offline.
Learn more »
Give kudos to tab author, rate the tab!
1 2 3 4 5
comments
print report bad tab
guest
You may want to rate the tab now too:
select rating
Wanna post a correction for this tab? Suggest correction