Oops, an error
Loading. Please wait.

Its Not War Just The End Of Love bass

2,007 views 1 this week
no commentswrite comment
1 2 3 4 5
1 last vote to show rating
add to favorites
×
Save as Personal and add changes to this tab that will be seen only by you. Learn more ›
×
You can save this tab as Personal to edit and correct it or add notes. All changes will be seen only by you. Learn more »
launch autoscroll
font size
0
reset
guitar tuner
edit
Autoscroll
slow
fast
+/-
esc
set tempo
stop
Author
Difficulty
Song: (It's Not War) Just The End Of Love
Album: Postcards From A Young Man
Band: Manic Street Preachers
Email: Zhoom@live.co.uk

This tab is based on what little can be heard on the record, an acoustic version of the 
and live videos.
It is likely that parts of this tab are not what he plays live or on the record, but it 
works with the song.

INTRO
The second time the intro is played the record does -12-10-8- from *
Live, Nicky Wire just plays what is tabbed
Also, watching live footage reveals that the second time NW plays the intro, he only 
what I've underlined with "

-------------------------------------------------------------|
---7-10---7-10---------------------5-8---5-8-----------------|
-8------6------6--6-6-6-6-6-6----6-----5-----8--*8-8-8-8-8-8-|
-------------------------------------------------------------|
               """"""""""""""                """""""""""""""
--------------------------------------------------|
---7-10---7-10------------------------------------|
-8------6------6--6-6-6-6-6-6----6--5--3----------|
------------------------------------------6--5--3-|
               """""""""""""""""""""""""""""""""""
Chorus

--------------------------------------|
--------------------------------------|
-5---1---3---3--3---3--0--3--1---1--1-|
--------------------------------------|

Verse
                     play on verse before chorus (only play * in the outro)
-----------------   ---------------------------*2-|
-----------------   -------------------------3----|
------1----3----3   ------1----3----3--3--5-------|
-1---------------   -1----------------------------|

Bridge

Part 1

-------------|
-------------|
-0-0-0-------|
--------3----|

Part 2

-------------|
-------------|
-0-0-0--1----|
-------------|

Solo (play chorus)

Order:
Intro-------|x1
Chorus------|x2
Verse-------|x3
Chorus------|x2
Bridge 2---x1
Verse-------|x3
Chorus------|x4
Bridge 1---x1
Bridge 2---x1
Intro-------|x1
Chorus------|x6
Bridge 1---x1
Bridge 2---x1
Verse------x2

I can't be sure that what I've tabbed is exact because on the record there is so many 
going on, and live as well, but my efforts seem plausable and I hope the help anyone in doubt.
If you have any problems or corrections then please email me.
Enjoy ;)

            
            
Suggest correction
Creating personal tab
Creating personal tab
You can edit any tab online and save it as your Personal.

You can edit, replace or remove any tab part or add personal notes – all changes will be seen only by you.

Personal tabs can be accessed anytime from any device, even offline.
Learn more »
Give kudos to tab author, rate the tab!
1 2 3 4 5
comments
print report bad tab
guest
You may want to rate the tab now too:
select rating
Wanna post a correction for this tab? Suggest correction