Oops, an error
Loading. Please wait.

Necropolis tab

version 2
version 2

Whole song

Interactive

4,282 views 1 this week
2 commentsread comments
1 2 3 4 5
2 more votes to show rating
add to favorites
×
Save as Personal and add changes to this tab that will be seen only by you. Learn more ›
×
You can save this tab as Personal to edit and correct it or add notes. All changes will be seen only by you. Learn more »
launch autoscroll
font size
0
reset
how to read this tab
guitar tuner
edit
Autoscroll
slow
fast
+/-
esc
set tempo
stop
-------------------------------------------------------------------------------
                             Necropolis - Manilla Road
-------------------------------------------------------------------------------
Tabbed by:Heavy Sullivan (Bloated Carcass)
Email:ryansullivan666@yahoo.com

Tuning:Eb

Intro
e|-------------|
B|-------------|
G|-------------|
D|-------------|
A|-3-2---3-2---|
E|-----1-----1-|

Riff 1
e|-------------------|
B|-------------------|
G|-------------------|
D|-2----2-5\4-2------|
A|-0-0000-3\2-0-3--5-|
E|--------------1--3-|
     ...

Riff 2
e|------------|
B|------------|
G|------------|
D|-5--7-------|
A|-3--5--3--5-|
E|-------1--3-|

Riff 3A                        
e|-----------------------------|
B|-----------------------------|
G|-----------------------------|
D|--------2-2-22---------------|
A|-3-3-33-0-0-00-5-5-55-5-5-55-|
E|-1-1-11--------3-3-33-3-3-33-|

Riff 3B                         
e|--------------------------------------|
B|--------------------------------------|
G|--------------------------------------|
D|--------2-2-22------------------------|
A|-3-3-33-0-0-00-5-5-55-5-5-55-3-3-33-3-|
E|-1-1-11--------3-3-33-3-3-33-1-1-11-1-|

Riff 4
e|----------------------------------------------------------|
B|----------------------------------------------------------|
G|----------------------------------------------------------|
D|-2---------2----5-----------2---------2----5--------------|
A|-0----3----0----3--5-5------0----3----0----3--5-5----3----|
E|------1------------3-3-----------1------------3-3----1----|
  
Ending  
e|---------------|
B|---------------|
G|---------------|
D|-------------2-|
A|-3-2---3-2---0-|
E|-----1-----1---|

Order:
Intro   1x
Riff 1  6x (You will play this 2x before the vocals come in.)
Riff 2  1x
Riff 3A 3x
Riff 3B 1x
Intro   1x
Riff 1  4x
Riff 2  1x
Riff 3A 3x
Riff 3B 1x
Riff 4  1x
Intro   1X
Riff 1  8x (During the first 4x times you play this riff there is a guitar solo.)
Riff 2  1x
Riff 3A 8x (Hold the last note.)
Ending  1x

And thats it! Hope this tab helps you out. Please e-mail me any corrections.

| /  slide up
| \  slide down
| h  hammer-on
| p  pull-off
| ~  vibrato
| +  harmonic
| x  Mute note

            
            
Suggest correction
Creating personal tab
Creating personal tab
You can edit any tab online and save it as your Personal.

You can edit, replace or remove any tab part or add personal notes – all changes will be seen only by you.

Personal tabs can be accessed anytime from any device, even offline.
Learn more »
Give kudos to tab author, rate the tab!
1 2 3 4 5
comments
print report bad tab
2 comments total.
0 reply
PowerWordKill 10 Dec 12, 2009 03:02 PM

Nice work.

0 reply
Lord_Vhailor 10 Mar 06, 2011 09:12 AM

Nice work, sounds to be ok, but Mark played this in E-standard tuning :) .

guest
Wanna post a correction for this tab? Suggest correction