Oops, an error
Loading. Please wait.

Speak Easy chords

2,113 views 24 this week
3 commentsread comments
1 2 3 4 5
x 18
add to favorites
×
Save as Personal and add changes to this tab that will be seen only by you. Learn more ›
×
You can save this tab as Personal to edit and correct it or add notes. All changes will be seen only by you. Learn more »
launch autoscroll
font size
0
reset
transpose
0
reset
display chords
guitar tuner
edit
Autoscroll
slow
fast
+/-
esc
set tempo
stop
Author
Difficulty
Strumming
There is no strumming pattern for this song yet. and get +5 IQ
SONG:   SPEAK EASY
ARTIST: MANSIONAIR
TAB BY: DON CZARSKI
EMAIL:  GUITARZAN7@HOTMAIL.COM


                 SPEAK EASY
                 MANSIONAIR

INTRO: GUITAR 1

NOTE: This is basically the pattern used to play the song
      as well for the verses.

   G             D             Bm           Bm
E --------------------------------------------------------
B ---3---3---3-----3---3---3-----3---3---3-----3---3---3--
G -0---0---0-------------------4---4---4-----4---4---4----
D ---------------4---4---4--------------------------------
A --------------------------------------------------------
E --------------------------------------------------------

   G             D             Bm           Bm
E --------------------------------------------------------
B ---3---3---3-----3---3---3-----3---3---3-----3---3---3--
G -0---0---0-------------------4---4---4-----4---4---4----
D ---------------4---4---4--------------------------------
A --------------------------------------------------------
E --------------------------------------------------------


VERSE:
  G          D       Bm
Speak, speak easy to me
                   G
Got a lot on your mind
      D      Bm
This time tonight
  G          D       Bm
Speak, speak easy to me
                   G      D        Bm
Don't let this go down tonight, tonight


INSTRUMENTAL: 
                      GUITAR 1                                   GUITAR 2
   G             D             Bm           Bm
E --------------------------------------------------------  E -14---12--10---
B ---3---3---3-----3---3---3-----3---3---3-----3---3---3--  B ----12--10---7-
G -0---0---0-------------------4---4---4-----4---4---4----  G ---------------
D ---------------4---4---4--------------------------------  D ---------------
A --------------------------------------------------------  A ---------------
E --------------------------------------------------------  E ---------------   

                   GUITAR 1                                   GUITAR 2
   G             D             Bm           Bm
E --------------------------------------------------------  E -14---12--10---
B ---3---3---3-----3---3---3-----3---3---3-----3---3---3--  B ----12--10---7-
G -0---0---0-------------------4---4---4-----4---4---4----  G ---------------
D ---------------4---4---4--------------------------------  D ---------------
A --------------------------------------------------------  A ---------------
E --------------------------------------------------------  E ---------------

                      GUITAR 1                                   GUITAR 2
   G             D             Bm           Bm
E --------------------------------------------------------  E -14---12--10---
B ---3---3---3-----3---3---3-----3---3---3-----3---3---3--  B ----12--10---7-
G -0---0---0-------------------4---4---4-----4---4---4----  G ---------------
D ---------------4---4---4--------------------------------  D ---------------
A --------------------------------------------------------  A ---------------
E --------------------------------------------------------  E ---------------

                      GUITAR 1                                   GUITAR 2
   G             D             Bm          
E -------------------------------------------               E -14---12--10---         
B ---3---3---3-----3---3---3-----3---3---3---               B ----12--10---7-
G -0---0---0-------------------4---4---4-----               G ---------------
D ---------------4---4---4-------------------               D ---------------
A -------------------------------------------               A ---------------
E -------------------------------------------               E ---------------
 

VERSE:
  G          D       Bm
Speak, speak easy to me
             G           D      Bm
My victory sleeps, and holds defeat
  G                 F#           Bm
Speak, and may the world come undone
                       G      D        A
Will you write on the wall tonight, tonight


CHORUS:
    G       D           Bm       
And oh god this is the last time
    G       D           Bm
And oh god this is the last time
                   G
Come and keep the dialogue
 D           Bm   Em
Will it ever be enough
          Bm       Em
Come and keep the dialogue
 D   G
For now


INSTRUMENTAL: 
                      GUITAR 1                                   GUITAR 2
   G             D             Bm           Bm
E --------------------------------------------------------  E -14---12--10---
B ---3---3---3-----3---3---3-----3---3---3-----3---3---3--  B ----12--10---7-
G -0---0---0-------------------4---4---4-----4---4---4----  G ---------------
D ---------------4---4---4--------------------------------  D ---------------
A --------------------------------------------------------  A ---------------
E --------------------------------------------------------  E ---------------   

                   GUITAR 1                                   GUITAR 2
   G             D             Bm           Bm
E --------------------------------------------------------  E -14---12--10---
B ---3---3---3-----3---3---3-----3---3---3-----3---3---3--  B ----12--10---7-
G -0---0---0-------------------4---4---4-----4---4---4----  G ---------------
D ---------------4---4---4--------------------------------  D ---------------
A --------------------------------------------------------  A ---------------
E --------------------------------------------------------  E ---------------


VERSE:
  G          D       Bm
Speak, speak easy to me
                   G        D      Bm
And I peek at the seas and see release
 G         F#                Bm
Seek, and look through your teeth
                G  D  A
You're lying to me-ee-ee


CHORUS:
    G       D           Bm       
And oh god this is the last time
    G       D           Bm
And oh god this is the last time
                   G
Come and keep the dialogue
 D               Bm      Em
Were you falling out of touch  
          Bm       Em
Come and keep the dialogue
 D   G
For now


BRIDGE: (No Chords) - (ACAPELLA)

    (D) (G)     (A)
So speak easy to me ba, ba, ba
    (D) (G)     (A)
So speak easy to me ba, ba, ba
    (D) (G)     (A)
So speak easy to me
    (D) (G)     (A)
So speak easy to me
    (D) (G)     (A)
So speak easy to me
    (D) (Em)    (G)
So speak easy to me


CHORUS:
    G       D           Bm       
And oh god this is the last time
    G       D           Bm
And oh god this is the last time
                   G
Come and keep the dialogue
 D               Bm      Em
Were you falling out of touch  
          Bm       Em
Come and keep the dialogue
 D   G
For now


OUTRO:
          Bm       G
Come and keep the dialogue
 D           Bm    Em
Will it ever be enough
          Bm       Em
Come and keep the dialogue
 D   G
For now
  
  G          Bm      Em
Speak, speak easy to me



            
            
Suggest correction
Creating personal tab
Creating personal tab
You can edit any tab online and save it as your Personal.

You can edit, replace or remove any tab part or add personal notes – all changes will be seen only by you.

Personal tabs can be accessed anytime from any device, even offline.
Learn more »
comments
print report bad tab
3 comments total.
0 reply
DON CZARSKI [tm] 28,144 Jan 27, 2016 10:22 AM

This was a request by a UG member for this song to be done in standard tuning..
I have arranged it for one guitar but their are 2 guitars playing...

0 reply
ayreon77 21,833 Jan 29, 2016 06:33 AM, edited at 11:34 am

looks good Don :)

0 reply
dkk195809 7,626 Aug 05, 2017 05:22 PM

I think it's fine, looks great.

guest
You may want to rate the tab now too:
select rating
Wanna post a correction for this tab? Suggest correction