Oops, an error
Loading. Please wait.

The Other One bass

by Manteca
862 views 3 this week
no commentswrite comment
1 2 3 4 5
3 more votes to show rating
add to favorites
×
Save as Personal and add changes to this tab that will be seen only by you. Learn more ›
×
You can save this tab as Personal to edit and correct it or add notes. All changes will be seen only by you. Learn more »
launch autoscroll
font size
0
reset
guitar tuner
edit
Autoscroll
slow
fast
+/-
esc
set tempo
stop
Author
Difficulty
|----------------------------------------------------------|
|----------------------------------------------------------|
|----------------------------------------------------------|
|------------------------------------------------------3---|
|------------------------------------------------3-4-5-----|
|--3--6------3--6---0h-1h2--1p0---3--6------3-5-6---------1| x 4

(The dirty, filthy, grimy, grungy, gut-wrenching bass clarinet riff that just sits in 
the bottom of your stomach for weeks and weeks; just fantastic!)

|--------------------|
|--------------------|
|-----3--5h6--7------|
|--5-----------------|
|--------------------|
|--------------------| x A bunch of times

|--------------------------------------------------|
|--------------------------------------------------|
|--------------------------------------------------|
|--------4--5----------------4--5--------------3---|
|--3--5----------------3--5--------------3-4-5-----|
|----------------------------------3-5-6---------1-| x A bunch of times (Just some 
subtle clarinet in the middle after the piano interlude); not too certain about this part...


That's about as far as this bass guitar will take me in terms of definite motifs heard 
throughout the song...
Manteca is fantastic - I had the pleasure of performing with them a couple of nights ago 
through my school, and it was an incredible experience.
Props to Kelly Jefferson and John Johnson, who both played this bass clarinet riff on 
two separate occasions; it will forever be ingrained inside of me!
~ Alex D

Website: http://www.manteca-music.com/

            
            
Suggest correction
Creating personal tab
Creating personal tab
You can edit any tab online and save it as your Personal.

You can edit, replace or remove any tab part or add personal notes – all changes will be seen only by you.

Personal tabs can be accessed anytime from any device, even offline.
Learn more »
Give kudos to tab author, rate the tab!
1 2 3 4 5
comments
print report bad tab
guest
You may want to rate the tab now too:
select rating
Wanna post a correction for this tab? Suggest correction