Oops, an error
Loading. Please wait.
We have an official Clandestino tab made by UG professional guitarists. Check out the tab »
×
44,118 views 30 this week
no commentswrite comment
1 2 3 4 5
x 9
add to favorites
×
Save as Personal and add changes to this tab that will be seen only by you. Learn more ›
×
You can save this tab as Personal to edit and correct it or add notes. All changes will be seen only by you. Learn more »
launch autoscroll
font size
0
reset
transpose
0
reset
simplify chords
display chords
guitar tuner
edit
Autoscroll
slow
fast
+/-
esc
set tempo
stop
Author
Strumming
There is no strumming pattern for this song yet. and get +5 IQ
F#m   :244222
Bm    :224432
Bmaj7:243422

[Verse]
    F#m
    Solo voy con mi pena
                   Bm
    Sola va mi condena
                    Bmaj7
    Correr es mi destino
                    F#m
    Para burlar la ley

    Perdido en el corazon
                     Bm
    De la grande babylon
                      Bmaj7
    Me dicen el clandestino
                     F#m
    Por no llevar papel

    Pa una ciudad del norte
                     Bm
    Yo me fui a trabajar
                 Bmaj7
    Mi vida la deje
                       F#m
    Entre ceuta y gibraltar

    Soy una raya en el mar
                    Bm
    Fantasma en la ciudad
                    Bmaj7
    Mi vida va prohibida
                  F#m
    Dice la autoridad

[Chorus]
    F#m
    Solo voy con mi pena
                   Bm
    Sola va mi condena
                    Bmaj7
    Correr es mi destino
                    F#m
    Para burlar la ley

    Perdido en el corazon
                     Bm
    De la grande babylon
                      Bmaj7
    Me dicen el clandestino
                     F#m
    Yo soy el quiebra ley

[Bridge]
    Bm                F#m
    Mano negra clandestina
    Bm              F#m
    Peruano clandestino
    Bm               F#m
    Africano clandestino
    Bmaj7         F#m
    Marijuana ilegal

[Chorus]
    F#m
    Solo voy con mi pena
                   Bm
    Sola va mi condena
                    Bmaj7
    Correr es mi destino
                    F#m
    Para burlar la ley

    Perdido en el corazon
                     Bm
    De la grande babylon
                      Bmaj7
    Me dicen el clandestino
                     F#m
    Por no llevar papel


Partition transcrite par pilou
Instruments : Guitare

F#m   Bm  (jusque là OK) et C#7 (446464)

Voilà, y a le choix maintenant.

Partition transcrite par Belek
Instruments : Guitare
Voila le solo de Clandestino dans Radio Bemba:
    Enjoy yourself!

e|-9--9--9--9--9--9--10--9---9---9---|
B|-10-10-10-10-10-10-12--10--10--10--|
G|-----------------------------------|
D|-----------------------------------|
A|-----------------------------------|
E|-----------------------------------|

e|10--7---------10-10-10-9--|
B|12--9--10-9---12-12-12-10-|
G|-------11-10--------------|
D|--------------------------|
A|--------------------------|
E|--------------------------|

e|------9-12-10-12-10-9----10-10-10-9-|
B|9-10-----------------12-------------|
G|------------------------------------|
D|------------------------------------|
A|------------------------------------|
E|------------------------------------|

e|--------9--9--9--9--9--10--9---|
B|12-10--10-10-10-10-10--12--10--|
G|-------------------------------|
D|-------------------------------|
A|-------------------------------|
E|-------------------------------|

e|12-12-12-12-10-9--10-|
B|14-14-14-14-12-10-12-|
G|---------------------|
D|---------------------|
A|---------------------|
E|---------------------|

e|------12------12------12-12-10-9-7-------------|
B|-9-10----9-10----9-10--------------10-9-7-9-10-|
G|-----------------------------------------------|
D|-----------------------------------------------|
A|-----------------------------------------------|
E|-----------------------------------------------|

            
            
Suggest correction
Creating personal tab
Creating personal tab
You can edit any tab online and save it as your Personal.

You can edit, replace or remove any tab part or add personal notes – all changes will be seen only by you.

Personal tabs can be accessed anytime from any device, even offline.
Learn more »
comments
print report bad tab
guest
You may want to rate the tab now too:
select rating
Wanna post a correction for this tab? Suggest correction