Oops, an error
Loading. Please wait.

Radio Bemba Sound System album bass

8,727 views 6 this week
no commentswrite comment
1 2 3 4 5
2 more votes to show rating
add to favorites
×
Save as Personal and add changes to this tab that will be seen only by you. Learn more ›
×
You can save this tab as Personal to edit and correct it or add notes. All changes will be seen only by you. Learn more »
launch autoscroll
font size
0
reset
guitar tuner
edit
Autoscroll
slow
fast
+/-
esc
set tempo
stop
Difficulty
Radio bemba sound system (Grabado en venezuela)
Manu chao

___________________________
intro
___________________________
(nada de bajo)

___________________________
Bienvenida a tijuana
___________________________
(nada de bajo)

__________________________
Machine gun
__________________________

intro
G----------------------|
D----------------------|
A----------------------|
E-5-5777-0--3-3666-0---|
(muchas veces)


ritmo movido de Ska
G---------------------------------|
D---------------------------------|
A---------------------------------|
E-4-0-4-0-3-0-3-0-2-0-2-0-1-0-1-0-|
(muchas veces)

fin

___________________________
Por donde saldra el sol?
___________________________

intro guitarra percusion
G--------------------------------|
D--------------------------------|
A--------------------------------|
E---5--00--3--00--3-1-5--00------|(el resto de la cancion)

___________________________
Peligro
___________________________

intro efectos guitarra y voz
(nada de bajo)

final de trompetas
G--------------------------|
D--------------------------|
A-6------------------------|
E---5----------------------|

verso
G--------------------------|
D--------------------------|
A-555-3-555----------------|
E-----------777-5-777------|

y luego
G--------------------------------|
D--------------------------------|
A-6---6---6---6------------------|
E---0---0---0----7-0-7-0-7-0-7-0-|

___________________________
Welcome to tijuana
___________________________

intro y versos
G----------------------|
D----------------------|
A----------------------|
E-3-0-3-0-2-0-2-0------|

___________________________
El viento
___________________________

intro guitarra

intro
G----------------|
D----------------|
A-------6-77777--|
E-2-2------------|

El resto de la cancion
G-----------------|
D-----------------|
A-----------------|
E-2-0-2-0-1-0-1-0-|

___________________________
Casa Babylon
___________________________

figura principal
G--------------------------------|
D--------------------------------|
A--5-0-5/6-0---------------------|
E--------------------------------|(toda la cancion)

___________________________
Por el suelo
___________________________

Intro guitarra
G----------------------------------------------|
D----------------------------------------------|
A----------------------------------------------|
E--5666-1-5666-3-------------------------------|

ritmo movido final (3:10)
G--------------------------------|
D--------------------------------|
A--------------------------------|
E--4-0-4-0-2-0-2-0---------------|

___________________________
Blood and Fire
___________________________

intro y verso
G----------------------|
D----------------------|
A---------22-----------|
E-22--55-----55--------|(unas pocas veces)

ritmo movidito ska
G----------------------|
D----------------------|
A----------------------|
E--5-0-5-0-4-2-4-2-----|(el resto de la cancion)

fin
G----------------------|
D----------------------|
A----------------------|
E--0-0-0-0-0-0-0-------|

_____________________________________
ELZN...Para tod@s..Todo...
_____________________________________

G------------------------|
D------------------------|
A--------000-------------|
E-1-1/2------------------|(se repite en algunas fraces)

___________________________
Mr bobby
___________________________

Intro y versos
G------------------------------------|
D------------------------------------|
A------------------------------------|
E-4-5550--4-5550--4-6666-565-0-------|

Final
G---------------------------------|
D---------------------------------|
A---------------------------------|
E-5-0-5-0-5-0-5-0-3-0-3-0-3-0-3-0-|

___________________________
Bongo bong
___________________________

G---------------------------------|
D---------------------------------|
A---------------------------------|
E-3-0-3-0-3-0-3-0-6-0-6-0-6-0-6-0-| (toda la cancion)

___________________________
Radio bemba
___________________________

G---------------------------------|
D---------------------------------|
A---------------------------------|
E--0-0-0-0-0-0-0-0-0-0-0-0-0-0----|

___________________________
Que paso que paso
___________________________

G----------------------------------------------------|
D----------------------------------------------------|
A----------------------------------------------------|
E--446-0-6(4x)---6-0-6-0-6-0-------------------------|(resto  de la cancion)

_______________________________________
pinoccio (viagio in groppa al tonno)
_______________________________________

inician trompetas
intro despues de la guitarra
G----------------------------------|
D----------------------------------|
A----------------------------------|
E--5-0-5-0-5-0-5-0-4-0-4-0-4-0-4-0-|

fin
G----------------------|
D----------------------|
A----------------------|
E--5-0-5-0-5-0-5-0-5-0-|

___________________________
Cahi en la trampa
___________________________

intro
G----------------------|
D----------------------|
A----------------------|
E--5-0-5-0-5-0-5-0-5-0-| (muchas veces)

verso
cahi en la trampa...
G----------------------------------|
D----------------------------------|
A----------------------------------|
E--5-0-5-0-7-0-7-0-5-0-5-0-5-0-5-0-| (muchas veces)

toque de tropetas
se toca

G----------------------|
D----------------------|
A----------------------|
E--5-0-5-0-7-0-7-0-----| (muchas veces)

mufatango....

G----------------------|
D----------------------|
A----------------------|
E--5-0-5-0-7-0-7-0-----| (muchas veces)

artritis asma diabetes e impotencia...

___________________________
Clandestino
___________________________

intro
G----------------------------------|
D----------------------------------|
A---33---33---22---22---00---00----|
E------1----1----1----1----1----1--| (toda la cancion)

___________________________
La rumba de barcelona
___________________________

intro guitarra y luego...
intro versos (0:27)

G---------------------------------|
D---------------------------------|
A---------------------------------|
E--5555-0-3-0-3333-0-5-0----------|

(2:53)no mas bajo

___________________________
La despedida
___________________________

intro guitarra

intro
G---------------------------------|
D---------------------------------|
A---------------------------------|
E--55-0-3--44-0-2-----------------|(muchas veces)

desde el inicio de esa parte (te espero siempre mi amor...)
G---------------------------------|
D---------------------------------|
A---------------------------------|
E-0-0--1-55555--0-0--1-5555555----|(y termina)

__________________________
Mala vida
__________________________

percusion...
guitarra...

G----------------|
D----------------|
A---3--3--2--2---|
E-3--3--2--2-----| (toda la cancion)

___________________________
Radio bemba
___________________________

G---------------------------------|
D---------------------------------|
A---------------------------------|
E--6-0-6-0-6-0-6-0-6-0-6-0-6-0----|(toda la cancion)

___________________________
Que paso que paso
___________________________

(0:11) figura principal
G--------------------------|
D--------------------------|
A--------------------------|
E--7777-8888-9999-6666-----|

(0:48) se repite

_______________________________________
pinoccio (viagio in groppa al tonno)
_______________________________________

inician trompetas

vos a viagio o tonno....
Radio bemba.....

intro despues de la guitarra

G----------------------------------|
D----------------------------------|
A----------------------------------|
E--5-0-5-0-5-0-5-0-3-0-3-0-3-0-3-0-|

fin
G----------------------|
D----------------------|
A----------------------|
E--5-0-5-0-5-0-5-0-5-0-|

___________________________
La primavera
___________________________

inicio guitarra y percusion ,luego...

G-----------------|
D-----------------|
A---5---4---------|
E-----5---3-------|(muchas veces)

votala votala votala...
G---------------------------------|
D---------------------------------|
A---------------------------------|
E-0000000000000000000000000000000-

y luego

G----------------------------------|
D----------------------------------|
A----------------------------------|
E--5-0-5-0-5-0-5-0-4-0-4-0-4-0-4-0-| (y termina)


___________________________
The monkey
___________________________

intro percusion

verso (la unica parte de bajo)
G----------------------|
D----------------------|
A----------------------|
E-111111111111111------| (1 muchas veces)

__________________________
king kong five
__________________________

intro
G----------------|
D----------------|
A----------------|
E-2-2-2--0-0-0-0-|

G----------------|
D----------------|
A----------------|
E-3-3-3--0-0-0-0-|
(4x)


rasgueo Ska guitarra y
luego...

verso
G------------------|
D------------------|
A------------------|
E-7-0-7-0--5-0-5-0-| (esto muchas veces)

se repite el intro y verso

el final (1 no 11)
G----------------|
D----------------|
A----------------|
E-11111111111111-

__________________________
Minha galera
__________________________

intro
G----------------------|
D----------------------|
A---3------------------|
E----------------------|(escuchen bien)

versos
G----------------------|
D----------------------|
A---2-1-22-------------|
E----------1-----------|

G----------------------|
D----------------------|
A---2222---------------|
E----------1-----------|

intercalar los toques en los versos

__________________________
Promiscuity
__________________________

intro en (0:09)
G---------------------|
D---------------------|
A---------------------|
E-6-0-6-0-5-0-5-0-----| (toda la cancion)

Gracias......VIVA COLOMBIA
desde Tunja-Boyaca: Best_dhg
correciones , preguntas a best_dhg@hotmail.com

            
            
Suggest correction
Creating personal tab
Creating personal tab
You can edit any tab online and save it as your Personal.

You can edit, replace or remove any tab part or add personal notes – all changes will be seen only by you.

Personal tabs can be accessed anytime from any device, even offline.
Learn more »
Give kudos to tab author, rate the tab!
1 2 3 4 5
comments
print report bad tab
guest
Wanna post a correction for this tab? Suggest correction