Oops, an error
Loading. Please wait.

Donde Nadie Pueda Ir chords

1,924 views 36 this week
no commentswrite comment
1 2 3 4 5
3 more votes to show rating
add to favorites
×
Save as Personal and add changes to this tab that will be seen only by you. Learn more ›
×
You can save this tab as Personal to edit and correct it or add notes. All changes will be seen only by you. Learn more »
launch autoscroll
font size
0
reset
transpose
0
reset
simplify chords
display chords
guitar tuner
edit
Autoscroll
slow
fast
+/-
esc
set tempo
stop
Author
Difficulty
Strumming
There is no strumming pattern for this song yet. and get +5 IQ
[Intro]

e|--14--12--------14--12--------|--14--12---------------------|
B|----------12------------11----|----------10----10--12--7----|
G|------------------------------|----------11------------7----|
D|------------------------------|-----------------------------|
A|------------------------------|-----------------------------|
E|------------------------------|-----------------------------|

e|--14--12--------14--12--------|----------------------------|
B|----------12------------11----|--10--12--10----8--12--7----|
G|------------------------------|----------11-----------7----|
D|------------------------------|----------------------------|
A|------------------------------|----------------------------|
E|------------------------------|----------------------------|


Aqui una version alternativa para tocar a 1 sola guitarra:



e|--2--0--2----2--0--2-----|--2--0--2----------0----|
B|--------3----------3-----|--------3-------0--0----|
G|--------4----------3-----|--------2----2-----1----|
D|--------0----------0-----|--------0----------4----|
A|--------0----------0-----|--------0----------2----|
E|--------3----------3-----|--------2----------0----|

e|--2--0--2----2--0--2-----|--------2----------0----|
B|--------3----------3-----|-----0--3----------0----|
G|--------4----------3-----|--------2----0--2--1----|
D|--------0----------0-----|--4-----0----------4----|
A|--------0----------0-----|--------0----------2----|
E|--------3----------3-----|--------2----------0----|


[Verse 1]

D6/G           Gmmaj9          D/F#
Buscando en las estrellas encontré
E9           D6/G           Gmmaj9          D/F#
Unos ojos tan brillantes como nada que conozcas
E9
Más allá que el sol
D6/G           Gmmaj9
  Porque eres tan bella
D/F#                   E9
  Más que el cielo y las estrellas
D6/G           Gmmaj9          D/F#             E9
Tu eres lo que faltaba y siempre quise que estuviera
D6/G      Gmmaj9            D/F#
Eres la única que me pone a bailar
             E9
Que me pone a sudar
D6/G           Gmmaj9          D/F#
La única que me pone la cabeza andar
             E9
El corazón a palpitar
D6/G           Gmmaj9
De una manera agradable
D/F#              E9
Por tu sonrisa insospechable
D6/G           Gmmaj9
Quisiera arrancarte la piel
D/F#              E9
Como un trozo de papel
D6/G           Gmmaj9
Quisiera besarte otra vez
D/F#          E9
Desde la cabeza hasta los pies
D6/G           Gmmaj9
Quiero amanecer contigo
D/F#              E9
Ser tu almohada y ser tu abrigo
D6/G           Gmmaj9
Siempre que quieras
      D/F#       E9
A la hora que lo quieras
D6/G           Gmmaj9
Voy a estar contigo ahí
    D/F#       E9
Escondidos hasta el fin
D6/G           E7
Juntos! Donde nadie pueda ir


[Instrumental]

e|--14--12--------14--12--------|--14--12---------------------|
B|----------12------------11----|----------10----10--12--7----|
G|------------------------------|----------11------------7----|
D|------------------------------|-----------------------------|
A|------------------------------|-----------------------------|
E|------------------------------|-----------------------------|

e|--14--12--------14--12--------|----------------------------|
B|----------12------------11----|--10--12--10----8--12--7----|
G|------------------------------|----------11-----------7----|
D|------------------------------|----------------------------|
A|------------------------------|----------------------------|
E|------------------------------|----------------------------|


[Verse 2]

D6/G      Gmmaj9            D/F#
Eres la única que me pone a bailar
             E9
Que me pone a sudar
D6/G           Gmmaj9          D/F#
La única que me pone la cabeza andar
             E9
El corazón a palpitar
D6/G           Gmmaj9
De una manera agradable
D/F#              E9
Por tu sonrisa insospechable
D6/G           Gmmaj9
Quisiera arrancarte la piel
D/F#              E9
Como un trozo de papel
D6/G           Gmmaj9
Quisiera besarte otra vez
D/F#          E9
Desde la cabeza hasta los pies
D6/G           Gmmaj9
Quiero amanecer contigo
D/F#              E9
Ser tu almohada y ser tu abrigo
D6/G           Gmmaj9
Siempre que quieras
      D/F#       E9
A la hora que lo quieras
D6/G           Gmmaj9
Voy a estar contigo ahí
    D/F#       E9
Escondidos hasta el fin
D6/G           E7
Junto
s! Donde nadie pueda ir



Chords:

  D6/G   Gmmaj9  D/F#   E9


E|--2---|--2--|--2--|--2--|
B|--3---|--3--|--3--|--3--|
G|--4---|--3--|--2--|--1--|
D|--0---|--0--|--0--|--0--|
A|--0---|--0--|--0--|--2--|
E|--3---|--3--|--2--|--0--|

            
            
Suggest correction
Creating personal tab
Creating personal tab
You can edit any tab online and save it as your Personal.

You can edit, replace or remove any tab part or add personal notes – all changes will be seen only by you.

Personal tabs can be accessed anytime from any device, even offline.
Learn more »
Give kudos to tab author, rate the tab!
1 2 3 4 5
comments
print report bad tab
guest
You may want to rate the tab now too:
select rating
Wanna post a correction for this tab? Suggest correction