Oops, an error
Loading. Please wait.

The Father Complex tab

889 views 9 this week
1 commentread comment
1 2 3 4 5
x 6
add to favorites
×
Save as Personal and add changes to this tab that will be seen only by you. Learn more ›
×
You can save this tab as Personal to edit and correct it or add notes. All changes will be seen only by you. Learn more »
launch autoscroll
font size
0
reset
how to read this tab
guitar tuner
edit
Autoscroll
slow
fast
+/-
esc
set tempo
stop
Author
Difficulty
Song: "The Father Complex"
Artist: Many Rooms
Album: Hollow Body
https://www.youtube.com/watch?v=dC_nFgJAcuQ
http://manyrooms.bandcamp.com/album/hollow-body


This song is actually pretty simple, it may not be exact but this tab works
fine on an acoustic and is in standard tuning. Intro is the same as the verse.


[Verse]

I bet you're looking for a sorry / Well I'm looking for one too
What goes on inside your heart / What makes you do the things you do
Do you really talk to god / Man, I wonder what he tells you 
e|------------------------------------------------------------------------|
B|------------------------------------------------------------------------|
G|---2---2---2---2---2---2---2---2-----5---5---5---5---5---5---5---5------|
D|------------------------------------------------------------------------|
A|------------------------------------------------------------------------|
E|-1---1---1---1---1---1---1---1-----5---5---5---5---5---5---5------------|


[Pre-Chorus]

...Maybe he has given up / the way that I / gave up too
e|------------------------------------------------------------------------|
B|------------------------------------------------------------------------|
G|---2---2---2---2-----4---4---4---4-----5---5---5---5---5----------------|
D|------------------------------------------------------------------------|
A|------------------------------------------------------------------------|
E|-1---1---1---1-----3---3---3---3-----5---5---5---5---5------------------|


[Chorus]

Well I hope that you're happy / Without me
e|------------------------------------------------------------------------|
B|------------------------------------------------------------------------|
G|---2---2---2---2---2---2---2---2-----4---4---4---4---4---4---4---4------|
D|------------------------------------------------------------------------|
A|------------------------------------------------------------------------|
E|-1---1---1---1---1---1---1---1-----3---3---3---3---3---3---3---3--------|

Well I, I wouldn't be
e|------------------------------------------------------------------------|
B|------------------------------------------------------------------------|
G|---5---5---5---5---5---5---5---5-----4---4---4---4---4---4---4---4------|
D|------------------------------------------------------------------------|
A|------------------------------------------------------------------------|
E|-5---5---5---5---5---5---5---5-----3---3---3---3---3---3---3---3--------|


[Verse]

So you're burning all your bridges / Are you moving on again 
Do you think you'll get to heaven / Just by simply sneaking in

[Play like chorus]
Do you think that you're justified / In all your lies
Well I think, you're in for a surprise


[Chorus]

And I hope that you're happy / without me
Well I, I wouldn't be.
Yeah I hope that you're happy / without me
Well honestly I, I wouldn't be


[Verse]

Do you really talk to god / Man I wonder what he tells you


[Pre-Chorus]

I hope he hasn't given up / The way that I
Gave up too

            
            
Suggest correction
Creating personal tab
Creating personal tab
You can edit any tab online and save it as your Personal.

You can edit, replace or remove any tab part or add personal notes – all changes will be seen only by you.

Personal tabs can be accessed anytime from any device, even offline.
Learn more »
comments
print report bad tab
1 comment total.
0 reply
mindkiller_ 275 May 08, 2017 08:36 PM

There's also B's 8 played along with the G's 5 sometimes:

e|-----------
B|---8---8---
G|---5---5---
D|-----------
A|-----------
E|-5---------

guest
You may want to rate the tab now too:
select rating
Wanna post a correction for this tab? Suggest correction