Oops, an error
Loading. Please wait.

Witch tab

version 1
version 1

Whole song

5,046 views 6 this week
2 commentsread comments
1 2 3 4 5
3 more votes to show rating
add to favorites
×
Save as Personal and add changes to this tab that will be seen only by you. Learn more ›
×
You can save this tab as Personal to edit and correct it or add notes. All changes will be seen only by you. Learn more »
launch autoscroll
font size
0
reset
how to read this tab
guitar tuner
edit
Autoscroll
slow
fast
+/-
esc
set tempo
stop
-------------------------------------------------------------------------------
                             Witch - Maps & Atlases
-------------------------------------------------------------------------------
this tab isn't finished completely but here is what i got so far

Tuning: Standard

e|--------------------------------|
B|--------------------------------|
G|--------------------------------|
D|--------------------------------|
A|------------------------11--10--|
E|--11--13--------11--13----------|


this part is not exactly right but you should get the idea
e|-----------------------------------------------------|
B|-----------------------------------------------------|
G|-----------------------------------------------------|
D|-14-14-14-11-11-11-14-14-14-14-14-14-14-14-14--------|
A|----------------------------------------------12p11--|
E|-----------------------------------------------------|

e|-----------------------------|
B|-----------------------------|
G|-----------------------------|
D|-----------------------------|
A|--12\\\7/9-------12\\\7/9-9--|
E|--12\\\7/9-------12\\\7/9-9--|

e|-------------------------------------------------------12-12-12----------|
B|-------------------------------------12-12-12-14-14-14----------14-14-14-|
G|-------------------11-11-11-14-14-14-------------------------------------|
D|-11-11-11-14-14-14-------------------------------------------------------|
A|-------------------------------------------------------------------------|
E|-------------------------------------------------------------------------|

e|-------------------------------|
B|-------------------------------|
G|-------------------------------|
D|-14-11-14-11-14-11-14-11-------|
A|-------------------------12----|
E|----------------------------12-|


thats all i got i figure out more ill post it and 
also if you figure out a part i dont have please send it to me on my profile


| /  slide up
| \  slide down
| h  hammer-on
| p  pull-off
| ~  vibrato
| +  harmonic
| x  Mute note
===============================================================================

            
            
Suggest correction
Creating personal tab
Creating personal tab
You can edit any tab online and save it as your Personal.

You can edit, replace or remove any tab part or add personal notes – all changes will be seen only by you.

Personal tabs can be accessed anytime from any device, even offline.
Learn more »
Give kudos to tab author, rate the tab!
1 2 3 4 5
comments
print report bad tab
2 comments total.
0 reply
RedTears 20 Feb 15, 2009 09:42 PM

It's a bit off.

e-----------------------
B-----------------------
G-----------------------
D-------------------7--6
A-7--9--------7--9------
E-----------------------

Is the "You were, you were a witch..."

e-------------------------------------------------------------------
B-------------------------------------------------------------------
G-13-13-13-13-------------------------------------------------------
D-------------11-11-11-11-11-11-14-14-14-14-14-14-------------------
A-------------------------------------------------12-12-12-12-12-11-
E-------------------------------------------------------------------

"The weather would celebrate us both as we ran all the way home"

0 reply
RedTears 20 Feb 15, 2009 09:42 PM

It's a bit off.

e-----------------------
B-----------------------
G-----------------------
D-------------------7--6
A-7--9--------7--9------
E-----------------------

Is the "You were, you were a witch..."

e-------------------------------------------------------------------
B-------------------------------------------------------------------
G-13-13-13-13-------------------------------------------------------
D-------------11-11-11-11-11-11-14-14-14-14-14-14-------------------
A-------------------------------------------------12-12-12-12-12-11-
E-------------------------------------------------------------------

"The weather would celebrate us both as we ran all the way home"

guest
Wanna post a correction for this tab? Suggest correction