Oops, an error
Loading. Please wait.

Ramera tab

67 views 1 this week
no commentswrite comment
1 2 3 4 5
3 more votes to show rating
add to favorites
×
Save as Personal and add changes to this tab that will be seen only by you. Learn more ›
×
You can save this tab as Personal to edit and correct it or add notes. All changes will be seen only by you. Learn more »
launch autoscroll
font size
0
reset
how to read this tab
guitar tuner
edit
Autoscroll
slow
fast
+/-
esc
set tempo
stop
Aca está versión eléctrica,en la otra colaboración solo estan los acordes de la acústica.
Va asi....  

intro:
e ----------------------------------------
b ---0---1---1-0----0-1s3--1-0-1-0--------
g -0---0---0------0----------------0------
d ----------------------------------------
a ----------------------------------------
e ----------------------------------------
repetir la intro

de ahi.....este riff que entra junto con el platillo, los parantesis son armónicos.

riff 1:

e --------------------------------(12)--
b --12--12------12----------------(12)--
g --12--12----------12------12----(12)--    (x3)
d --12--12--12----------10--------------
a --10----------------------------------
e -------------------------------------- 

(y en la cuarta es asi)

e --------------------------------------
b --12--12------12----------------(12)/0
g --12--12----------12------12----(12)/0    
d --12--12--12----------10--------------
a --10----------------------------------
e -------------------------------------- 


 Estrofa 1:
 
G5             C5
  cuando tu me buscas
  ya  no  me   sonries
  evitas las miradas 
  tratas de agredirme

G5             C5
  cuando tu me buscas               
  trato de evadirte 
  por que me sigues ahora?
  si antes tu nunca lo hiciste


riff 2: la 'f' al lado de un número significa full
    
      G5           C5
                        A
                    |--------|
 e -------------------------------
 b -------------------------------
 G ----0---0------0--3f-3-1-3-----     (x4)
 d - 0---0---0--2-----------------
 a -------------------------------
 e -------------------------------

G5             C5
  Busco otro rebaño
  es tiempo de lucirte             (en la mitad del tiempo de C5 toca 'a' del riff 2)  
  sonries por la calle a 
  todo el que te enviste


pre coro :

  D5-B5-C5 (x4)   (D5 dura dos tiempos,B5 uno y C5 uno, aca abajo esta en tab)
   
  
                    serás feliz?......nunca lo sabre....   
  e -----------------------------                                                              
  b -----------------------------
  G --3-3-3-3--4-4-5-5-----------     (x3)
  d --3-3-3-3--4-4-5-5-----------
  g --5-5-5-5--2-2-3-3-----------
  e ----------------------------- 
 
   (en el cuarto tiempo viene esto que arrastra de C5 a D5)   

  e -----------------------------
  b -----------------------------
  g --3-3-3-3--4-4-5-5/-3--------
  d --3-3-3-3--4-4-5-5/-3--------
  a --5-5-5-5--2-2-3-3/-5--------
  e -----------------------------

   (de ahi la primera guitarra toca esto justo antes de entrar al coro)

  e ------------14--
  b ---------15-----
  g --12------------
  d ----------------
  a ---------------- 
  e ----------------
   
  ra ra ra ra....(esto se toca con la D5)

Coro:
   G5            C5
   ramera dejaras al niño....busca-
   ras  una  ciudad nueva....engendra- 
   ras un alma de egoismo.... querras 
   irte con las maletas y las llaves de la 
   puerta.

   -Tocar riff 2 aca.
    
Estrofa 2:

G5             C5
  cuando tu me buscas  
  ya no me sories
  escondes los cuchillos 
  tratas de agredirme

G5             C5
  busco otro rebaño 
  es tienpo de lucirte              (en la mitad del tiempo de C5 toca 'a' del riff 2, 
  sonries por la calle a             otra guitarra hace armónicos como está en el riff 1)
  todo el que te enviste.

   -tocar pre coro 
   
   -tocar coro 
 
   -de ahi:
    
    e -------------------------------
    b -------------------------------
    G ----0---0------0--3f-3-1-3-----     (x3)
    d - 0---0---0--2-----------------
    a -------------------------------
    e -------------------------------

    y en el cuarto tiempo cambia y hace esto:

    e -------------------------------
    b -------------------------------
    g ----0---0------0--3f-3-1-3s8---    
    d - 0---0---0--2-----------------
    a -------------------------------
    e -------------------------------


 Esta cación va para toda la gente rockera y dedicada para un flaca 
 que le cae a como añillo al  dedo...cualquier comentario correccion 
 o peticon sera bien venida,mi mail es  bracho_rhcp@ .

 atte: Gianfranco Bracho W. 

 p.d :saludos para la gente del c.c y que viva el peru!!!!!!

            
            
Suggest correction
Creating personal tab
Creating personal tab
You can edit any tab online and save it as your Personal.

You can edit, replace or remove any tab part or add personal notes – all changes will be seen only by you.

Personal tabs can be accessed anytime from any device, even offline.
Learn more »
Give kudos to tab author, rate the tab!
1 2 3 4 5
comments
print report bad tab
guest
Wanna post a correction for this tab? Suggest correction