Oops, an error
Loading. Please wait.

Holzschwert tab

version 1
version 1

Whole song

Interactive

283 views 3 this week
no commentswrite comment
1 2 3 4 5
3 more votes to show rating
add to favorites
×
Save as Personal and add changes to this tab that will be seen only by you. Learn more ›
×
You can save this tab as Personal to edit and correct it or add notes. All changes will be seen only by you. Learn more »
launch autoscroll
font size
0
reset
how to read this tab
guitar tuner
edit
Autoscroll
slow
fast
+/-
esc
set tempo
stop
Holzschwert
Marathonmann
Tuning: Standard


[0:00 - 0:32]

[Gtr 1]
e|--------------------------|------------------------|-----------------|------------------|
B|--------------------------|------------------------|-----------------|------------------|
G|--12-12-12-12-12-12-12-11-|-11-11-11-11-11-11-11-9-|-9-9-9-9-9-9-9-9-|-9-9-9-9-9-9-9-12-|
D|--9--9--9--9--9--9--9--9--|-9--9--9--9--9--9--9--9-|-9-9-9-9-9-9-9-9-|-9-9-9-9-9-9-9-10-|
A|--7--7--7--7--7--7--7--7--|-7--7--7--7--7--7--7--7-|-7-7-7-7-7-7-7-7-|-7-7-7-7-7-7-7-10-|
E|--------------------------|------------------------|-----------------|------------------|

e|--------------------------|-------------------------|-------------------------|-------------------------|
B|--------------------------|-------------------------|-------------------------|-------------------------|
G|--12-12-12-12-12-12-11-11-|-11-11-11-11-11-11-11-11-|-14-14-14-14-14-14-12-12-|-12-12-12-12-12-12-12-12-|
D|--10-10-10-10-10-10-10-10-|-10-10-10-10-10-10-10-10-|-10-10-10-10-10-10-10-10-|-10-10-10-10-10-10-10-10-| x3
A|--10-10-10-10-10-10-10-10-|-10-10-10-10-10-10-10-10-|-10-10-10-10-10-10-10-10-|-10-10-10-10-10-10-10-10-|
E|--------------------------|-------------------------|-------------------------|-------------------------|


(Gtr 2) (starts at 0:11)
e|------------------|     e|-----------------|     e|-----------------|     e|-----------------|
B|------------------|     B|-----------------|     B|-----------------|     B|-----------------|
G|------------------|     G|-----------------|     G|-----------------|     G|-----------------|
D|------------------| x4  D|-----------------| x4  D|-----------------| x4  D|-----------------| x4
A|--2-2-2-2-2-2-2-2-|     A|-3-3-3-3-3-3-3-3-|     A|-2-2-2-2-2-2-2-2-|     A|-3-3-3-3-3-3-3-3-|
E|--0-0-0-0-0-0-0-0-|     E|-3-3-3-3-3-3-3-3-|     E|-0-0-0-0-0-0-0-0-|     E|-3-3-3-3-3-3-3-3-|


[0:32 - 0:54]

(Gtr 1)
e|-----------|----------|----------|----------|----------|----------|----------|----------|
B|--8------7-|----------|-0--------|----------|-5-7---7--|----------|----------|----------|
G|-----------|----------|----------|------4/7-|----------|----------|----------|----------|
D|-----------|----------|----------|----------|----------|----------|----------|----------| x2
A|-----------|----------|----------|----------|----------|----------|----------|----------|
E|-----------|----------|----------|----------|----------|----------|----------|----------|

(Gtr 2)
e|-----------|----------|----------|----------|----------|----------|----------|----------|
B|--8--------|----------|----------|------7-5-|-8--------|----------|----------|----5h7p5-|
G|-----------|----------|----------|----------|----------|----------|----------|----------|
D|-----------|----------|----------|----------|----------|----------|----------|----------|
A|-----------|----------|----------|----------|----------|----------|----------|----------|
E|-----------|----------|----------|----------|----------|----------|----------|----------|

e|-----------|----------|----------|----------|----------|----------|----------|----------|
B|--8--------|----------|----------|----7h8p5-|-8--------|----------|----------|----5h7p5-|
G|-----------|----------|----------|----------|----------|----------|----------|----------|
D|-----------|----------|----------|----------|----------|----------|----------|----------|
A|-----------|----------|----------|----------|----------|----------|----------|----------|
E|-----------|----------|----------|----------|----------|----------|----------|----------|


[0:54 - 1:15]

(Gtr 1)                                                                  1.               2.
e|----------|---------|---------|---------|---------|---------|---------|---------|      e|---------|
B|--5--8--7-|-8-------|-5--8--7-|-8---7-5-|----7--8-|---------|----7--8-|--7------|      B|-8-------|
G|----------|---------|---------|---------|-5-------|---------|-5-------|-----5---|      G|---------|
D|----------|---------|---------|---------|---------|---------|---------|---------| x2   D|---------|
A|----------|---------|---------|---------|---------|---------|---------|---------|      A|---------|
E|----------|---------|---------|---------|---------|---------|---------|---------|      E|---------|

(Gtr 2)
   PM--------------|         PM--------------|         PM--------------|         PM--------------|
e|------------------|-------|-----------------|-------|-----------------|-------|-----------------|-------|
B|------------------|-------|-----------------|-------|-----------------|-------|-----------------|-------|
G|------------------|-------|-----------------|-------|-----------------|-------|-----------------|-------|
D|------------------|-------|-----------------|-------|-----------------|-------|-----------------|-------| x2
A|--2-2-2-2-2-2-2-2-|-2-----|-2-2-2-2-2-2-2-2-|-2-----|-3-3-3-3-3-3-3-3-|-3-----|-3-3-3-3-3-3-3-3-|-3-----|
E|--0-0-0-0-0-0-0-0-|-0-----|-0-0-0-0-0-0-0-0-|-0-----|-3-3-3-3-3-3-3-3-|-3-----|-3-3-3-3-3-3-3-3-|-3-----|


[1:15 - 1:37]

(Gtr 1)
e|--------------------------|------------------------|-----------------|------------------|
B|--------------------------|------------------------|-----------------|------------------|
G|--12-12-12-12-12-12-12-11-|-11-11-11-11-11-11-11-9-|-9-9-9-9-9-9-9-9-|-9-9-9-9-9-9-9-12-|
D|--9--9--9--9--9--9--9--9--|-9--9--9--9--9--9--9--9-|-9-9-9-9-9-9-9-9-|-9-9-9-9-9-9-9-10-|
A|--7--7--7--7--7--7--7--7--|-7--7--7--7--7--7--7--7-|-7-7-7-7-7-7-7-7-|-7-7-7-7-7-7-7-10-|
E|--------------------------|------------------------|-----------------|------------------|

e|--------------------------|-------------------------|-------------------------|-------------------------|
B|--------------------------|-------------------------|-------------------------|-------------------------|
G|--12-12-12-12-12-12-11-11-|-11-11-11-11-11-11-11-11-|-14-14-14-14-14-14-12-12-|-12-12-12-12-12-12-12-12-|
D|--10-10-10-10-10-10-10-10-|-10-10-10-10-10-10-10-10-|-10-10-10-10-10-10-10-10-|-10-10-10-10-10-10-10-10-| x2
A|--10-10-10-10-10-10-10-10-|-10-10-10-10-10-10-10-10-|-10-10-10-10-10-10-10-10-|-10-10-10-10-10-10-10-10-|
E|--------------------------|-------------------------|-------------------------|-------------------------|

(Gtr 2)
e|--------------------------|-------------------------|-------------------------|-----------------|
B|--------------------------|-------------------------|-------------------------|-----------------|
G|--12-12-12-12-12-12-12-12-|-11-11-11-11-11-11-11-11-|-------------------------|-0-0-0-0-0-0-0-0-|
D|--------------------------|-------------------------|-12-12-12-12-12-12-12-12-|-----------------| x4
A|--------------------------|-------------------------|-------------------------|-----------------|
E|--------------------------|-------------------------|-------------------------|-----------------|


[1:37 - 1:58]

(Gtr 1)
e|-----------|----------|----------|----------|----------|----------|----------|----------|
B|--8------7-|----------|-0--------|----------|-5------3-|----------|----------|----------|
G|-----------|----------|----------|----------|----------|----------|----------|----------|
D|-----------|----------|----------|----------|----------|----------|----------|----------| x2
A|-----------|----------|----------|----------|----------|----------|----------|----------|
E|-----------|----------|----------|----------|----------|----------|----------|----------|

(Gtr 2)
e|-----------|----------|----------|----------|
B|--8--------|----------|----------|----7h8p5-|
G|-----------|----------|----------|----------|
D|-----------|----------|----------|----------| x4
A|-----------|----------|----------|----------|
E|-----------|----------|----------|----------|


[1:58 - 2:19]

(Gtr 1)                                                                  1.                2.
e|----------|---------|---------|---------|---------|---------|---------|---------|      e|---------|
B|--5--8--7-|-8-------|-5--8--7-|-8---7-5-|----7--8-|---------|----7--8-|--7------|      B|-8-------|
G|----------|---------|---------|---------|-5-------|---------|-5-------|-----5---|      G|---------|
D|----------|---------|---------|---------|---------|---------|---------|---------| x2   D|---------|
A|----------|---------|---------|---------|---------|---------|---------|---------|      A|---------|
E|----------|---------|---------|---------|---------|---------|---------|---------|      E|---------|

(Gtr 2)
   PM--------------|         PM--------------|         PM--------------|         PM--------------|
e|------------------|-------|-----------------|-------|-----------------|-------|-----------------|-------|
B|------------------|-------|-----------------|-------|-----------------|-------|-----------------|-------|
G|------------------|-------|-----------------|-------|-----------------|-------|-----------------|-------|
D|------------------|-------|-----------------|-------|-----------------|-------|-----------------|-------| x2
A|--2-2-2-2-2-2-2-2-|-2-----|-2-2-2-2-2-2-2-2-|-2-----|-3-3-3-3-3-3-3-3-|-3-----|-3-3-3-3-3-3-3-3-|-3-----|
E|--0-0-0-0-0-0-0-0-|-0-----|-0-0-0-0-0-0-0-0-|-0-----|-3-3-3-3-3-3-3-3-|-3-----|-3-3-3-3-3-3-3-3-|-3-----|


[2:19 - 2:41]

(Gtr 1)
e|----------|---------|---------|---------|---------|---------|---------|---------|
B|--8-------|---------|-7-------|-----7-5-|-5-------|---------|---------|---------|
G|----------|---------|---------|---------|---------|---------|---------|---------|
D|----------|---------|---------|---------|---------|---------|---------|---------|
A|----------|---------|---------|---------|---------|---------|---------|---------|
E|----------|---------|---------|---------|---------|---------|---------|---------|

e|----------|---------|---------|---------|---------|---------|---------|---------|
B|--8-------|----8-10-|-10------|-7-------|-5-------|---------|---------|---------|
G|----------|---------|---------|---------|---------|---------|---------|---------|
D|----------|---------|---------|---------|---------|---------|---------|---------|
A|----------|---------|---------|---------|---------|---------|---------|---------|
E|----------|---------|---------|---------|---------|---------|---------|---------|

(Gtr 2)
e|----------|---------|---------|---------|---------|---------|---------|---------|
B|--5-------|---------|-3-------|---------|-0-------|---------|---------|---------|
G|----------|---------|---------|---------|---------|---------|---------|---------|
D|----------|---------|---------|---------|---------|---------|---------|---------| x2
A|----------|---------|---------|---------|---------|---------|---------|---------|
E|----------|---------|---------|---------|---------|---------|---------|---------|


[2:41 - 3:05]

(Gtr 1)
e|----------|---------|---------|---------|---------|---------|---------|---------|
B|--8-------|-----8-7-|-7-------|-----7-5-|-5-------|---------|---------|---------|
G|----------|---------|---------|---------|---------|---------|---------|---------|
D|----------|---------|---------|---------|---------|---------|---------|---------|
A|----------|---------|---------|---------|---------|---------|---------|---------|
E|----------|---------|---------|---------|---------|---------|---------|---------|

e|----------|---------|---------|---------|---------|---------|---------|---------|
B|--8-------|----8-10-|-10------|-7-------|-5-------|---------|---------|---------|
G|----------|---------|---------|---------|---------|---------|---------|---------|
D|----------|---------|---------|---------|---------|---------|---------|---------|
A|----------|---------|---------|---------|---------|---------|---------|---------|
E|----------|---------|---------|---------|---------|---------|---------|---------|

(Gtr 2)                                                         1.                       2.
e|----------|---------|---------|---------|---------|---------|---------|---------|     e|---------|---------|
B|--5-------|---------|-7-------|-----7---|-8-------|---------|---------|---------|     B|-12------|---------|
G|----------|---------|---------|---------|---------|---------|---------|---------|     G|---------|---------|
D|----------|---------|---------|---------|---------|---------|---------|---------| x2  D|---------|---------|
A|----------|---------|---------|---------|---------|---------|---------|---------|     A|---------|---------|
E|----------|---------|---------|---------|---------|---------|---------|---------|     E|---------|---------|


[3:05 - 3:48]

(Gtr 1)
e|--------------------------|------------------------|-----------------|------------------|
B|--------------------------|------------------------|-----------------|------------------|
G|--12-12-12-12-12-12-12-11-|-11-11-11-11-11-11-11-9-|-9-9-9-9-9-9-9-9-|-9-9-9-9-9-9-9-12-|
D|--9--9--9--9--9--9--9--9--|-9--9--9--9--9--9--9--9-|-9-9-9-9-9-9-9-9-|-9-9-9-9-9-9-9-10-|
A|--7--7--7--7--7--7--7--7--|-7--7--7--7--7--7--7--7-|-7-7-7-7-7-7-7-7-|-7-7-7-7-7-7-7-10-|
E|--------------------------|------------------------|-----------------|------------------|

e|--------------------------|-------------------------|-------------------------|-------------------------|
B|--------------------------|-------------------------|-------------------------|-------------------------|
G|--12-12-12-12-12-12-11-11-|-11-11-11-11-11-11-11-11-|-14-14-14-14-14-14-12-12-|-12-12-12-12-12-12-12-12-|
D|--10-10-10-10-10-10-10-10-|-10-10-10-10-10-10-10-10-|-10-10-10-10-10-10-10-10-|-10-10-10-10-10-10-10-10-| x4
A|--10-10-10-10-10-10-10-10-|-10-10-10-10-10-10-10-10-|-10-10-10-10-10-10-10-10-|-10-10-10-10-10-10-10-10-|
E|--------------------------|-------------------------|-------------------------|-------------------------|

(Gtr 2)
e|--------------------------|-------------------------|-------------------------|-----------------|
B|--------------------------|-------------------------|-------------------------|-----------------|
G|--12-12-12-12-12-12-12-12-|-11-11-11-11-11-11-11-11-|-------------------------|-0-0-0-0-0-0-0-0-|
D|--------------------------|-------------------------|-12-12-12-12-12-12-12-12-|-----------------| x4
A|--------------------------|-------------------------|-------------------------|-----------------|
E|--------------------------|-------------------------|-------------------------|-----------------|

e|------7-----|-------7---|
B|--8-------0-|---8-----0-|
G|------------|-----------|
D|------------|-----------| x8
A|------------|-----------|
E|------------|-----------|


[3:48 - end]

(Gtr 1+2)
e|------------|-----------|
B|------------|-----------|
G|------------|-----------|
D|--9---------|-----------|
A|--7---------|-----------|
E|--0---------|-----------|



***********************************
| /   Slide up
| h   Hammer-on
| p   Pull-off
***********************************

            
            
Suggest correction
Creating personal tab
Creating personal tab
You can edit any tab online and save it as your Personal.

You can edit, replace or remove any tab part or add personal notes – all changes will be seen only by you.

Personal tabs can be accessed anytime from any device, even offline.
Learn more »
Give kudos to tab author, rate the tab!
1 2 3 4 5
comments
print report bad tab
guest
You may want to rate the tab now too:
select rating
Wanna post a correction for this tab? Suggest correction