Oops, an error
Loading. Please wait.

One Safe Place tab

14,388 views 27 this week
2 commentsread comments
1 2 3 4 5
x 6
add to favorites
×
Save as Personal and add changes to this tab that will be seen only by you. Learn more ›
×
You can save this tab as Personal to edit and correct it or add notes. All changes will be seen only by you. Learn more »
launch autoscroll
font size
0
reset
how to read this tab
guitar tuner
edit
Autoscroll
slow
fast
+/-
esc
set tempo
stop
Taken from a couple of live versions, so it may vary.

Capo 5th fret

Chords used:

Cadd9: X32030
G: 320030
Dsus2: XX0230

Intro/Chorus: Cadd9 G Dsus2

The picking pattern has a couple of variations, but its mostly based around this. 
Some notes are added or not played (the note on the D string in the Cadd9 and G chords 
experiment a bit, you can't go far wrong using the chord patterns.

e|----------------------------------0------------------|
B|--------3------------3--------3-----3------3---------|
G|------0---0--------0---0--------2-----2------2---0---|
D|----2-------2----0-------0--0------------------0-----|
A|--3--------------------------------------------------|
E|---------------3-------------------------------------|

Verse:

The verse also uses variations on a similar pattern, usually consisting of one of these 
of a mix of the two:

e|-----------------------------------------------------------|
B|----3-----------3-----------3--1p0--3----------------------|
G|----0--0---0----0--0---0----0--0----2---2h4--2p0-----------|
D|---------2-----------2--------------0---0------------------|
A|--3-----------3--------------------------------------------|
E|--------------------------3--------------------------------|

or

e|-------------------------------------------------------|
B|----3-----------3-----------3-----------3--------------|
G|----0--0---0----0--0---0----0--0---0----2--2---0-------|
D|---------0-----------0-----------0----0------0---------|
A|--3-----------3----------------------------------------|
E|--------------------------3----------------------------|


There is also a small bridge part after the chorus sometimes which I think goes 
like:

e|----------------------------------------|
B|------------3--3------3---3-----3-------|
G|--0--0------2-----2---------2-----------|
D|--0--2--0---0-------0---0-----0---------|
A|--2--3--0-------------------------------|
E|--------2-------------------------------|

Cadd9                 G       Dsus2
How many roads you’ve traveled

Cadd9                  G       Dsus2
How many dreams you’ve chased

Cadd9                   G       Dsus2
Across sand and sky and gravel

                      Cadd9     G       Dsus2
Looking for one safe place, yeah, hey yeah


          Cadd9     G        Dsus2
One safe place, yeah, hey yeah

Will you make a smoother landing
When you break your fall from grace
Into the arms of understanding
Looking for one safe place, yeah, hey yeah
One safe place, yeah, hey yeah

Oh life is trial by fire
And love’s the sweetest taste
And I pray it lifts us higher
To one safe place, yeah, hey yeah

How many roads we’ve traveled
How many dreams we’ve chased
Across sand and sky and gravel
Looking for one safe place, yeah, hey yeah
One safe place, yeah, hey yeah

Thats the whole song. Comments or corrections are welcome, enjoy.

            
            
Suggest correction
Creating personal tab
Creating personal tab
You can edit any tab online and save it as your Personal.

You can edit, replace or remove any tab part or add personal notes – all changes will be seen only by you.

Personal tabs can be accessed anytime from any device, even offline.
Learn more »
comments
print report bad tab
2 comments total.
0 reply
dael29 10 Mar 18, 2009 11:25 PM

e|-------3---------------3---------------5---3---------------------|
B|---1-------1---1---1-------1-------3---------3-------3-----3---1-|
G|-----0-------0---0---0-------0-------0---------------0-------0---|
D|-3-------3-------2-----------------------------------------------|
A|-----------------3---------------2---------------2-------3-------|
E|-----------------------------------------------------------------|

just the intro from what i heard.......

0 reply
yak82 85 Mar 04, 2017 09:55 AM

Really nice song. Well tabbed.

guest
You may want to rate the tab now too:
select rating
Wanna post a correction for this tab? Suggest correction