Oops, an error
Loading. Please wait.

Shapeshifter tab

1,023 views 3 this week
1 commentread comment
1 2 3 4 5
2 more votes to show rating
add to favorites
×
Save as Personal and add changes to this tab that will be seen only by you. Learn more ›
×
You can save this tab as Personal to edit and correct it or add notes. All changes will be seen only by you. Learn more »
launch autoscroll
font size
0
reset
how to read this tab
guitar tuner
edit
Autoscroll
slow
fast
+/-
esc
set tempo
stop
Marcy Playground
Shapeshifter
Album: B-Sides
Submitted by M. Burgess


Shapeshifter
     E *        A         D         E        B5
e --------- ----0---- ----2---- ----0---  ---------
B --------- ----2---- ----3---- ----0---- ---------
G ----1---- ----2---- ----2---- ----1---- ----4----
D ----2---- ----2---- ----0---- ----2---- ----4----
A ----2---- ----0---- --------- ----2---- ----2----
E ----0---- --------- --------- ----0---- ----x----

Riff 1:                               Riff 2:

e|---------------------------------| |---------------------------------|
B|---------------------------------| |---------------------------------|
G|---------------------------------| |---------------------------------|
D|-------6-------------------------| |-------6---------7p6---7p6-6-----|
A|-----7-----7---4-5p4-5p4-5-7---7-| |-----7-----7---7-----7-------7---|
E|-0-----------0-------------------| |-0-------------------------------|

Riff 3:

e|---------------------------------|
B|---------------------------------|
G|---------------------------------|   (let first open E ring
D|-------6---------7p6-------------|    on Riffs 1, 2 & 3 )
A|-----7-----7---7-----7-5---------|
E|-0-----------------------7---7---|

Riff 4:

e|----------------------------------|
B|----------------------------------|
G|--1-2-1---------------------------|
D|--------4-2-0---------------------|
A|--------------4-2-0---------------|
E|----------------------------------|

Riff 5:                              Riff 6:

e|---------------------------------- -------------------------|
B|---------------------------------- -------------------------|
G|---4/5--x------------------------- -------------------------|
D|---4/5--x--5\4--x--4/5------------ --4/5--x--4/5--x---------|
A|---2/3--x--5\4--x--4/5------------ --4/5--x--4/5--x---------|
E|-----------3\2--x--2/3------------ --2/3--x--2/3--x---------|


(Riff 1, Riff 2, Riff 1, Riff 3)

E *
When I was standin' on the gallows
                             A
Nothing to say, I watched my sun... go down
E *
And light got dark around the edges
                           A              (Riff 4)
With no control I felt my soul... go down
D           E                A       D     - these chords spell "DEAD!"
When you're dead there isn't anybody else,
A      D          E
Nobody else... at all

(Riff 1, Riff 2, Riff 1, Riff 3)

E5
So darkness came upon the valley
                               A
And all the war machines broke down... broke down
E5
And all the children ran for cover
                          A                  (Riff 4)
And all the animals broke down... broke down

[Chorus]
E               A               D  A
Ooh, well maybe they... should not have
E              A           D  A
Been quite so bold... to test me
    E          A       D A
For I am the Shape...shifter
    E               A
And I'll have my revenge

(Riff 5)

E                    B5
(ooh, ooh, ooh, ooh, ooh's...)
E                    B5        (Riff 4)
(ooh, ooh, ooh, ooh, ooh's...)

(Chorus)

(Riff 5, Riff 5, Riff 6 then and E (let ring)) 

            
            
Suggest correction
Creating personal tab
Creating personal tab
You can edit any tab online and save it as your Personal.

You can edit, replace or remove any tab part or add personal notes – all changes will be seen only by you.

Personal tabs can be accessed anytime from any device, even offline.
Learn more »
Give kudos to tab author, rate the tab!
1 2 3 4 5
comments
print report bad tab
1 comment total.
0 reply
steelvike26 21 Jun 06, 2014 09:41 PM

Good catch with the chords spelling dead!

guest
Wanna post a correction for this tab? Suggest correction