Oops, an error
Loading. Please wait.

A Childrens Crusade On Acid tab

18,967 views 3 this week
3 commentsread comments
1 2 3 4 5
x 17
add to favorites
×
Save as Personal and add changes to this tab that will be seen only by you. Learn more ›
×
You can save this tab as Personal to edit and correct it or add notes. All changes will be seen only by you. Learn more »
launch autoscroll
font size
0
reset
how to read this tab
guitar tuner
edit
Autoscroll
slow
fast
+/-
esc
set tempo
stop
CHORDS USED--------------
   Am   Em  F   F*  Dm   G  C   C*  C**
e------------------3--------------------------|
b--1-------1--1----2------1---1---1-----------|
g--2-------2-------1--------------------------|
d--2---2---3--------------2---2---------------|
a------2---3-----------2--3---3---2-----------|
E-------------2--------3------3---------------|

Sorry dont know all the chord names, just pay attention to the asteriks.
!!!On the chord F* mute the a string and only strum the first 3 strings.!!!


Am
Sarah settle down
Am
Put your helmet on
Em
Walk through streets of gold
F*                        G
With cigarettes you hand-rolled

Am
I don't know you
                                Em
And I don't owe you a thing
        Am       Em       Dm
But I smile so hard it hurts
Am          Em             Dm
Just when things get worse

You said you've
G
Woken from a dream
C*            C**          Am
Abandoned by your mother
                    F          G
Oh could this be...

Am
Satan settle down
Am
Keep your trousers on
Em
You can roam the globe
F*                            G
But leave my wretched soul alone

Am
I don't know you
                               Em
And I don't owe you a thing
           Am       Em          Dm
But the children lose their minds
    Am       Em        Dm
In such uncertain times
           G
And I'm awoken from a dream
C*            C**       Am
Surrounded by my lovers
          F           G
Woe is me

Am                              Dm              G
And a hundred thousand times a day
                        C        C**
The yellow lights turn red
Am                              Dm              G
And a hundred thousand miles away
                        C        C**
I'm turning myself in, oh Christ I am

            
            
Suggest correction
Creating personal tab
Creating personal tab
You can edit any tab online and save it as your Personal.

You can edit, replace or remove any tab part or add personal notes – all changes will be seen only by you.

Personal tabs can be accessed anytime from any device, even offline.
Learn more »
comments
print report bad tab
3 comments total.
+1 reply
notanimal 62 Feb 16, 2010 03:29 PM

good job, but this should be under "chords", not "tabs", because that's all it is. you didn't do the lead guitar. but, otherwise, it's perfect.

0 reply
malloldan 10 Aug 13, 2014 03:21 PM

solo is
e-8-7-8-7-5-7-5-7-5---------------------------|
b-------------------8-8-5--8-8-5--------------|
g---------------------------------------------|
d---------------------------------------------|x2
a---------------------------------------------|
E---------------------------------------------|

0 reply
chubylml 108 Jul 15, 2016 06:34 PM

solo is
e-8-7-8-7-5-7-5-7-8-7-8-7-5-7-5---7-7-----7-7--------------|
b--------------------------------8-8--5--8-8--5------------|
g----------------------------------------------------------|
d----------------------------------------------------------|x2
a----------------------------------------------------------|
E----------------------------------------------------------|

guest
Wanna post a correction for this tab? Suggest correction