Oops, an error
Loading. Please wait.
2,251 views 3 this week
2 commentsread comments
1 2 3 4 5
x 3
add to favorites
×
Save as Personal and add changes to this tab that will be seen only by you. Learn more ›
×
You can save this tab as Personal to edit and correct it or add notes. All changes will be seen only by you. Learn more »
launch autoscroll
font size
0
reset
transpose
0
reset
simplify chords
display chords
guitar tuner
edit
Autoscroll
slow
fast
+/-
esc
set tempo
stop
Strumming
There is no strumming pattern for this song yet. and get +5 IQ



Feel free to comment any corrections...

C     C/G          Em    Em7/B
Jesus breaks your heart
      F             G            C
Every night when he doesn't come.
C   C/G           Em         Em7/B
All alone, wine bottles and chrome,
      F             G       C
I got nothing in my bag for you.

e|---------------------------------|
B|---------------------------------|
G|---------------------------------|
D|---------------------------------|
A|-------3----2--------------------|
E|------------------0--------------|

Em      F           G
The fire from the sky,
Em          F              G
He wants to know your shoe size,
            F         G
And all the weird shit in your brain
           F                 G
He's gonna wash it away with blood, but
C    C/G       Em     Em7/B
He breaks your heart
      F             G       C
every night when he doesn't come.

C    G   Em    F   G   C

C     C/G       Em   Em7/B
Mary, steal the car
      F               G     C
Drive it off with the carnival
C       C/G           Em         Em7/B
I could pray, I could beg you to stay,
      F        G      C
But I won't.

e|---------------------------------|
B|---------------------------------|
G|---------------------------------|
D|---------------------------------|
A|-------3----2--------------------|
E|------------------0--------------|

Em   F            G
Tell him what you like,
Em            F            G
He wants to know your dark side,
            F         G
And all the weird shit in your brain,
           F                 G
He's gonna wash it away with blood.
C     C/G        Em    Em7/B
He'll break your heart
      F             G       C
every night when he doesn't come.

C    G   Em    F   G   C

e|---------------------------------|
B|---------------------------------|
G|---------------------------------|
D|---------------------------------|
A|-------3----2--------------------|
E|------------------0--------------|

Em    F                   G
Tell me what you're like,
Em          F                   G
Come on and flash me those blue eyes,
            F         G
And all the weird shit in your brain,
          F                 G
I'm gonna wash it away with blood, but

C   C/G      Em
You break my heart
      F             G    C
every night when we fall apart
      F             G    C
every night when we fall apart
      F             G    C
every night when we fall apart



On the C thats held at the end of each verse and starts off the next one i like to play 
this lick while there are no lyrics

e|---------------------------------|
B|---------0-----0-----0-----------|
G|------------------0----2---------|
D|-----------0h2-------------------|
A|-------3-------------------------|
E|---------------------------------|

            
            
Suggest correction
Creating personal tab
Creating personal tab
You can edit any tab online and save it as your Personal.

You can edit, replace or remove any tab part or add personal notes – all changes will be seen only by you.

Personal tabs can be accessed anytime from any device, even offline.
Learn more »
Give kudos to tab author, rate the tab!
1 2 3 4 5
comments
print report bad tab
2 comments total.
0 reply
hendrixfreak93 891 Jun 01, 2012 09:26 PM

Great tab! I love this song. I have one correction though (or at least something that I think sounds good!) In the beginning part of the verses where you have the progression as C G Em, I think C Cmaj7 Em would be more accurate (just remove your pointer finger from the C shape to leave the B string open). Here is also a tab for if you want to incorporate a bit of the piano melody for the intro/beginning of each verse:

e|------0--------------------------|
B|--1-0-0-3-3-1-0-1----------------|
G|--0-0-0-0-2-0---0----------------|
D|--2-2-2-2-x-0---2----------------|
A|--3-3-2-2-3-2---3----------------|
E|--3-3-0-0-1-3---3----------------|

The strumming pattern isn't shown, I've just tabbed each chord (C Cmaj7 Em F G and back to C). The melody is on the B and high E strings. Anyway, just a few suggestions and something to spice it up a bit. Great job figuring it out, props! :)

0 reply
VOLTRON1979 52 Oct 04, 2012 05:00 PM

Yeah for the verse progression of C G Em i think its actually C C/G Em.

The C/G looks like this

e| -----------0--------------------|
B| -----------1--------------------|
G| -----------0--------------------|
D| -----------2--------------------|
A| -----------0--------------------|
E| -----------3--------------------|

I originally tabbed it from figuring it out on piano, but this way sounds better for guitar.

guest
You may want to rate the tab now too:
select rating
Wanna post a correction for this tab? Suggest correction