Oops, an error
Loading. Please wait.

Without You tab

1,204 views 15 this week
no commentswrite comment
1 2 3 4 5
2 more votes to show rating
add to favorites
×
Save as Personal and add changes to this tab that will be seen only by you. Learn more ›
×
You can save this tab as Personal to edit and correct it or add notes. All changes will be seen only by you. Learn more »
launch autoscroll
font size
0
reset
how to read this tab
guitar tuner
backing track
0:00
0:00
edit
Autoscroll
slow
fast
+/-
esc
set tempo
stop
Author
Difficulty
WITHOUT YOU    by Mariah Carey

Tabs written and arranged by Edwin-E (in YouTube)
Blog: http://guitarplucking.blogspot.com
Facebook Page: http://facebook.com/EdwinGuitar

Video Tutorial:  http://www.youtube.com/watch?v=rrE3EJ6B1pc

Intro:

E|--5--5p3--3--3--5--5p3--3--]
B|--3--3----3--3--3--3----3--]
G|---------------------------]
D|---------------------------]
A|---------------------------]
E|--3-------------3----------]


Verse 1

E|--------------------------]
B|-----3--5--5--5--3--3-----]
G|--4-----4--------------4--]
D|--------------------------]
A|--------------------------]
E|--------3-----------------]
         G
   No I can't forget this evening


E|--------------------------]
B|-----3--5--5--5--3--3-----]
G|--4-----4--------------4--]
D|--------------------------]
A|--------2-----------------]
E|--------------------------]
            Bm
   Or your face as you were leaving


E|-----------------------------------------2--]
B|-----3--3--1--1--0--0--------------4-----4--]
G|--4--------------------2--2--0--4-----4--4--]
D|--------------------------------------------]
A|--------0-----------------------2-----------]
E|--------------------------------------------]
          Am                                  B
   But I guess that's just the way the story goes


E|--------------------0--0--3--3--0--0-----------0--]
B|--------------0--0-----------------1--------1-----]
G|--4--4--2--0-----------------------------2--------]
D|-----------2--------------------------2-----------]
A|-----------2-----------------------0--------------]
E|-----------0--------------------------------------]
              Em                                  Am
   You always smile but in your eyes your sorrow shows



E|--0--3-----------------3-----------2h3--2--]
B|--------3-----------0-----------1----------]
G|-----------------0-----------2-------------]
D|--------------0-----------0----------------]
A|-----------2-------------------------------]
E|--------3----------------------------------]
            G    D7
   Yes it shows


Verse 2

E|--------------------------]
B|-----3--5--5--5--3--3-----]
G|--4-----4--------------4--]
D|--------------------------]
A|--------------------------]
E|--------3-----------------]
          G
   No I can't forget tomorrow


E|--------------------------]
B|-----3--5--5--5--3--3-----]
G|--4-----4--------------4--]
D|--------------------------]
A|--------2-----------------]
E|--------------------------]
           Bm
   When I think of all my sorrow


E|-----------------------------------------2--]
B|-----3--3--1--1--0--0--------------4-----4--]
G|--4--------------------2--2--0--4-----4--4--]
D|--------------------------------------------]
A|--------0-----------------------2-----------]
E|--------------------------------------------]
           Am                              B
   When I had you there but then I let you go


E|--------------------0--0--3--3--0--0-----------0--]
B|--------------0--0-----------------1--------1-----]
G|--4--4--2--0-----------------------------2--------]
D|-----------2--------------------------2-----------]
A|-----------2-----------------------0--------------]
E|-----------0--------------------------------------]
                Em                               Am
   And now it's only fair that I should let you know


E|--3--0--------------------3-----------2h3--2--]
B|--------0--3-----------0-----------1----------]
G|--------------------0-----------2-------------]
D|-----------------0-----------0----------------]
A|--------------2-------------------------------]
E|-----------3----------------------------------]
                    G   D7 
   What you should know

                             

   CHORUS:   

E|-----------3--------3-----------------------------]
B|--------0--0--------0-----------------------------]
G|--0--2-----------------2--2--0--0-----0--2--0-----]
D|--------------------------2--------2-----------2--]
A|--------2-----2--2--------2--------------2--------]
E|--------3-----3--3--------0--------------0--------]
            G       Em
   I can't live, if living is without you


E|--------------------------------------]
B|-----0--1--------1-----0--1--0-----1--]
G|--2--------2-----2--2-----------2--2--]
D|--------2-----2--2--------0--------0--]
A|--------0-----------------------------]
E|--------------------------------------]
            Am            D
   I can't live, I can't give anymore


E|--3--5--7--------7--------------------------------]
B|--------8--8-----8--10--10--8--8-----8--10--8-----]
G|--------7-----7--7----------------9------------9--]
D|--------9--------9--------------------------------]
A|------------------------7---------------7---------]
E|--------------------------------------------------]
            G        Em
   I can't live, if living is without you


E|------7--8----------8-------7--7h8--7------8--]
B|--10-----10--10-----10--10-------------10--7--]
G|-----------------9--9----------------------7--]
D|-------------------------------------------0--]
A|---------0---------------------0--------------]
E|----------------------------------------------]
            Am            D           D7
   I can't give, I can't give anymore

Verse 3

E|--------------------------]
B|-----3--5--5--5--3--3-----]
G|--4-----4--------------4--]
D|--------------------------]
A|--------------------------]
E|--------3-----------------]
           G
   Well I can't forget this evening


E|--------------------------]
B|-----3--5--5--5--3--3-----]
G|--4-----4--------------4--]
D|--------------------------]
A|--------2-----------------]
E|--------------------------]
           Bm
   Or your face as you were leaving


E|-----------------------------------------2--]
B|-----3--3--1--1--0--0--------------4-----4--]
G|--4--------------------2--2--0--4-----4--4--]
D|--------------------------------------------]
A|--------0-----------------------2-----------]
E|--------------------------------------------]
          Am                                  B
   But I guess that's just the way the story goes


E|--------------------0--0--3--3--0--0-----------0--]
B|--------------0--0-----------------1--------1-----]
G|--4--4--2--0-----------------------------2--------]
D|-----------2--------------------------2-----------]
A|-----------2-----------------------0--------------]
E|-----------0--------------------------------------]
              Em               Em7              Am
   You always smile but in your eyes your sorrow shows


E|--0--3-----0--------------------0--2--3--]
B|--------3-----0--------0--1--3-----------]
G|-----------------0--2--------------------]
D|--------------------0--------------------]
A|-----------------------------------------]
E|--------3--------------------------------]
            G   D7
   Yes it shows


   CHORUS 2

E|--3--5--7--------7--------------------------------]
B|--------8--8-----8--10--10--8--8-----8--10--8-----]
G|--------7-----7--7----------------9------------9--]
D|--------9--------9--------------------------------]
A|------------------------7---------------7---------]
E|--------------------------------------------------]
            G        Em
   I can't live, if living is without you


E|------7--8----------8-------7--7h8--7------8--]
B|--10-----10--10-----10--10-------------10--7--]
G|-----------------9--9----------------------7--]
D|-------------------------------------------0--]
A|---------0------------------------------------]
E|----------------------------------------------]
            Am            D
   I can't live, I can't give anymore


E|--3--5--7--------7--------------------------------]
B|--------8--8-----8--10--10--8--8-----8--10--8-----]
G|--------7-----7--7----------------9------------9--]
D|--------9--------9--------------------------------]
A|------------------------7---------------7---------]
E|--------------------------------------------------]
            G        Em
   I can't live, if living is without you



E|------7--9---8----------8-------7--7h8--7------8--]
B|--10-----10--10--10-----10--10-------------10--7--]
G|---------------------9--9----------------------7--]
D|-----------------------------------0-----------0--]
A|---------0----------------------------------------]
E|--------------------------------------------------
            Am            D
   I can't live, I can't give anymore


E|--8--7--------------3--]
B|-----------------3-----]
G|--------------4--------]
D|-----------5-----------]
A|--------5--------------]
E|-----3-----------------]
   G
  ……

            
            
Suggest correction
Creating personal tab
Creating personal tab
You can edit any tab online and save it as your Personal.

You can edit, replace or remove any tab part or add personal notes – all changes will be seen only by you.

Personal tabs can be accessed anytime from any device, even offline.
Learn more »
Give kudos to tab author, rate the tab!
1 2 3 4 5
comments
print report bad tab
guest
You may want to rate the tab now too:
select rating
Wanna post a correction for this tab? Suggest correction