Oops, an error
Loading. Please wait.

Shake Tramp bass

version 2
version 2

Whole song

124 views 1 this week
no commentswrite comment
1 2 3 4 5
3 more votes to show rating
add to favorites
×
Save as Personal and add changes to this tab that will be seen only by you. Learn more ›
×
You can save this tab as Personal to edit and correct it or add notes. All changes will be seen only by you. Learn more »
launch autoscroll
font size
0
reset
guitar tuner
edit
Autoscroll
slow
fast
+/-
esc
set tempo
stop
Author
Difficulty
Marianas Trench
Shake Tramp
Bass (Standard EADG)



random singing starts
ba ba ba badaba part
G|-------------------------------------------|       G|---|
D|-------------------------------------------|2x     D|---|
A|-2-2-2-2-2-2-2-2-2-2-----------------------|       A|--6|  Intro
E|--------------------4-4-0-0-0-0-0-0-0-0-0-0|       E|0--|

Did I let you down to get that sound
And break my knees to get release
And you needed some just to take you from
And I hit you more is your face still sore

Sorry but I tried, it was never mine And I can still pretend, I guess it all depends Still a little crazy all
the time but I can try to hide it, that's still mine
 
G|--------------------------------------                 
D|--------------------------------------  prechorus
A|---2-----------2-------6-6-6-6-x-x-x-x
E|-4----4--0---4----4--0----------------

Try a little more, little more, little more
They slap you like a bitch and you take it like a whore


G|-------------------------------------------------|
D|-------------------------------------------------| End chorus
A|2-2-2-2-2-2-2-2-2-2-2-2--------------------------| 
E|-----------------------4-4-4-4-4-4-4-4-0--44--0-0|


What a cheap perfume I hate this room So testify But I still try And you need that stamp little handshake
tramp And you hit me more and my face still Sorry but I tried It was never mine And I can still pretend
I guess it all depends Still a little crazy all the time but I still try to hide it That's still mine 
G|----------------------
D|----------------------  2x
A|---2-----------2------  Verse 2 and prechorus
E|-4----4--0---4----4--0


Try a little more, little more, little more
They slap you like a bitch and you take it like a whore
Upside down and around and around
Just another piece till you need another sound

G|------------------------------------------------- 
D|-------------------------------------------------
A|2-2-2-2-2-2-2-2-2-2-2-2--------------------------
E|------------------------4-4-4-4-4-4-4-4--0--44--0

Faze them out I know what you scream about Don't let me down
G|-----------------------
D|-----------------------
A|-2--------2-4-0--2----- Bridge
E|---4-0--0----------4-0~

And the guilt in me is the hurt in you And the hurt in you is the lost in me And the lost in me is the need in
you And the need in you is the guilt in me            
G|--------------------------------------------|          |------------------------------End of midtro
D|--------------------------------------------|2x        |------------------------------
A|-2-2-2-2-2-2-2-2-2-2------------------------|Midtro    |-6-6-6-6-6-6-6-6-4-4-4-4-4-3~~
E|---------------------4-4-0-0-0-0-0-0-0-0-0-0|          |------------------------------

Try a little more, little more, little more They slap you like a bitch and you take it like a whore
Upside down and around and around Just another piece till you need another sound (x2)
G|------------------------------------------------
D|------------------------------------------------
A|4-4---------4-4---------4-4--------------------- 4x
E|----4-4-2-2-----4-4-2-2-----4-4-2-2--2-2-3-3-2-2 chorus

G|---------------------------------------------------------
D|--------------------------------------------------------- End chorus until end
A|2-2-2-2-2-2-2-2-2-2-2-2-------------------------------2~~
E|------------------------4-4-4-4-4-4-4-4--0--4-4--0-0-----







            
            
Suggest correction
Creating personal tab
Creating personal tab
You can edit any tab online and save it as your Personal.

You can edit, replace or remove any tab part or add personal notes – all changes will be seen only by you.

Personal tabs can be accessed anytime from any device, even offline.
Learn more »
Give kudos to tab author, rate the tab!
1 2 3 4 5
comments
print report bad tab
guest
You may want to rate the tab now too:
select rating
Wanna post a correction for this tab? Suggest correction