Oops, an error
Loading. Please wait.

My Lover Cindy tab

version 1
version 1

Whole song

619 views 30 this week
1 commentread comment
1 2 3 4 5
x 3
add to favorites
×
Save as Personal and add changes to this tab that will be seen only by you. Learn more ›
×
You can save this tab as Personal to edit and correct it or add notes. All changes will be seen only by you. Learn more »
launch autoscroll
font size
0
reset
how to read this tab
guitar tuner
edit
Autoscroll
slow
fast
+/-
esc
set tempo
stop
Tuning: Standard
Capo: none

This is tabbed from the Live From Marika's Bedroom session.

[Intro]
(Guitar 1)
   1  +  2  +  3  +  4  +  1  +  2  +  3  +  4  +  1  +  2  +  3  +  4  +  1  +  2  +  3  +  4  +
e|-9-----9--9-----9-----7-----7--x--7-----7--7--7--5-----5--5-----7-----5-----5--x--5-----5--5--5-|
B|-10----10-10----9-----9-----9--x--9-----9--9--9--5-----5--5-----9-----7-----7--x--7-----7--7--7-|
G|-11----11-11----10----9-----9--x--9-----9--9--9--6-----6--6-----9-----7-----7--x--7-----7--7--7-|
D|-11----11-11----11----9-----9--x--9-----9--9--9--7-----7--7-----9-----7-----7--x--7-----7--7--7-|
A|-9-----9--9-----11----7-----7--x--7-----7--7--7--7-----7--7-----7-----5-----5--x--5-----5--5--5-|
E|----------------9--------------------------------5-----5--5-------------------------------------|

   1  +  2  +  3  +  4  +  1  +  2  +  3  +  4  +  1  +  2  +  3  +  4  +  1  +  2  +  3  +  4  +
e|-5-----5--5-----2-----5-----5--x--5-----5--5--5--5----------------------------------------------|
B|-7-----7--7-----3-----6-----6--x--6-----6--6--6--5----------------------------------------------|
G|-7-----7--7-----4-----7-----7--x--7-----7--7--7--6-----6-4---------6-4---------6-4--------------|
D|-7-----7--7-----4-----7-----7--x--7-----7--7--7--7-----7-7---------7-7---------7-7------7-------|
A|-5-----5--5-----2-----5-----5--x--5-----5--5--5--7-----7-7---------7-7---------7-7--------------|
E|-------------------------------------------------5----------------------------------------------|

(Guitar 2)
      1  +  2  +  3  +  4  +  1  +  2  +  3  +  4  +     1  +  2  +  3  +  4  +  1  +  2  +  3  +  4  +
e|-10/12----10-----------8/10----10-9--9----------------------------------------------------------------|
B|-------------14----12-------------------12-12-10-10-10/12----14-12-------14-12-------14---------------|
G|----------------------------------------------------------------------------------------14------------|
D|------------------------------------------------------------------------------------------------------|
A|------------------------------------------------------------------------------------------------------|
E|------------------------------------------------------------------------------------------------------|

      1  +  2  +  3  +  4  +  1  +  2  +  3  +  4  +     1  +  2  +  3  +  4  +  1  +  2  +  3  +  4  +
e|-10/12----10-----------8/10----10-9--9----------------------------------------------------------------|
B|-------------14----12-------------------12-12-10-10-10/12----14-12-------14-12-------14-12------------|
G|----------------------------------------------------------------------------------------------14------|
D|------------------------------------------------------------------------------------------------------|
A|------------------------------------------------------------------------------------------------------|
E|------------------------------------------------------------------------------------------------------|

[Verse]
(Guitar 1)
   1  +  2  +  3  +  4  +  1  +  2  +  3  +  4  +  1  +  2  +  3  +  4  +  1  +  2  +  3  +  4  +
e|-9-----9--9-----9-----7-----7--x--7-----7--7--7--5-----5--5-----7-----5-----5--x--5-----5--5--5-|
B|-10----10-10----9-----9-----9--x--9-----9--9--9--5-----5--5-----9-----7-----7--x--7-----7--7--7-|
G|-11----11-11----10----9-----9--x--9-----9--9--9--6-----6--6-----9-----7-----7--x--7-----7--7--7-|
D|-11----11-11----11----9-----9--x--9-----9--9--9--7-----7--7-----9-----7-----7--x--7-----7--7--7-|
A|-9-----9--9-----11----7-----7--x--7-----7--7--7--7-----7--7-----7-----5-----5--x--5-----5--5--5-|
E|----------------9--------------------------------5-----5--5-------------------------------------|

   1  +  2  +  3  +  4  +  1  +  2  +  3  +  4  +  1  +  2  +  3  +  4  +  1  +  2  +  3  +  4  +
e|-5-----5--5-----2-----5-----5--x--5-----5--5--5--5----------------------------------------------|
B|-7-----7--7-----3-----6-----6--x--6-----6--6--6--5----------------------------------------------|
G|-7-----7--7-----4-----7-----7--x--7-----7--7--7--6-----6-4---------6-4---------6-4--------------|
D|-7-----7--7-----4-----7-----7--x--7-----7--7--7--7-----7-7---------7-7---------7-7------7-------|
A|-5-----5--5-----2-----5-----5--x--5-----5--5--5--7-----7-7---------7-7---------7-7--------------|
E|-------------------------------------------------5----------------------------------------------|

   1  +  2  +  3  +  4  +  1  +  2  +  3  +  4  +  1  +  2  +  3  +  4  +  1  +  2  +  3  +  4  +
e|-9-----9--9-----9-----7-----7--x--7-----7--7--7--5-----5--5-----7-----5-----5--x--5-----5--5--5-|
B|-10----10-10----9-----9-----9--x--9-----9--9--9--5-----5--5-----9-----7-----7--x--7-----7--7--7-|
G|-11----11-11----10----9-----9--x--9-----9--9--9--6-----6--6-----9-----7-----7--x--7-----7--7--7-|
D|-11----11-11----11----9-----9--x--9-----9--9--9--7-----7--7-----9-----7-----7--x--7-----7--7--7-|
A|-9-----9--9-----11----7-----7--x--7-----7--7--7--7-----7--7-----7-----5-----5--x--5-----5--5--5-|
E|----------------9--------------------------------5-----5--5-------------------------------------|

   1  +  2  +  3  +  4  +  1  +  2  +  3  +  4  +  1  +  2  +  3  +  4  +  1  +  2  +  3  +  4  +
e|-5-----5--5-----2-----0-----0--0--0-----2-----3-----3--3--3-----0-----0-----0--0--0-----0--0--0-|
B|-7-----7--7-----3-----2-----2--2--2-----3-----3-----3--3--3-----2-----0-----0--0--0-----0--0--0-|
G|-7-----7--7-----4-----2-----2--2--2-----4-----4-----4--4--4-----2-----1-----1--1--1-----1--1--1-|
D|-7-----7--7-----4-----2-----2--2--2-----4-----5-----5--5--5-----2-----2-----2--2--2-----2--2--2-|
A|-5-----5--5-----2-----0-----0--0--0-----2-----5-----5--5--5-----0-----2-----2--2--2-----2--2--2-|
E|----------------------0-----0--0--0-----------3-----3--3--3-----0-----0-----0--0--0-----0--0--0-|

   1  +  2  +  3  +  4  +
e|----0--0--0-----0--0--0-|
B|----0--0--0-----0--0--0-|
G|----1--1--1-----1--1--1-|
D|----2--2--2-----2--2--2-|
A|----2--2--2-----2--2--2-|
E|----0--0--0--0--0--0--0-|

(Guitar 2)
      1  +  2  +  3  +  4  +  1  +  2  +  3  +  4  +     1  +  2  +  3  +  4  +  1  +  2  +  3  +  4  +
e|-10/12----10-----------8/10----10-9--9----------------------------------------------------------------|
B|-------------14----12-------------------12-12-10-10-10/12----14-12-------14-12-------14---------------|
G|----------------------------------------------------------------------------------------14------------|
D|------------------------------------------------------------------------------------------------------|
A|------------------------------------------------------------------------------------------------------|
E|------------------------------------------------------------------------------------------------------|

      1  +  2  +  3  +  4  +  1  +  2  +  3  +  4  +     1  +  2  +  3  +  4  +  1  +  2  +  3  +  4  +
e|-10/12----10-----------8/10----10-9--9----------------------------------------------------------------|
B|-------------14----12-------------------12-12-10-10-10/12----14-12-------14-12-------14-12------------|
G|----------------------------------------------------------------------------------------------14------|
D|------------------------------------------------------------------------------------------------------|
A|------------------------------------------------------------------------------------------------------|
E|------------------------------------------------------------------------------------------------------|

      1  +  2  +  3  +  4  +  1  +  2  +  3  +  4  +     1  +  2  +  3  +  4  +  1  +  2  +  3  +  4  +
e|-10/12----10--------------8/10-10-9--9----------------------------------------------------------------|
B|-------------14----12-------------------12-12-10-10-10/12----14-12-------14-12-------14---------------|
G|----------------------------------------------------------------------------------------11------------|
D|------------------------------------------------------------------------------------------------------|
A|------------------------------------------------------------------------------------------------------|
E|------------------------------------------------------------------------------------------------------|

   1  +  2  +  3  +  4  +  1  +  2  +  3  +  4  +  1  +  2  +  3  +  4  +  1  +  2  +  3  +  4  +
e|----------------------12----10----9--------------------------------------------------------------|
B|-12----14-12----10----------------------10-------8-----10-8--------10----------------------------|
G|-------------------------------------------------------------------------9-----------------------|
D|-------------------------------------------------------------------------------------------------|
A|-------------------------------------------------------------------------------------------------|
E|-------------------------------------------------------------------------------------------------|

[Chorus]
(Guitar 1)
   1  +  2  +  3  +  4  +
e|-0-----0-----2------------|
B|-2-----0-----3------------|
G|-2-----1-----2------------|
D|-2-----2-----0------------|
A|-0-----2------------------|
E|-0-----0------------------| (x3)

   1  +  2  +  3  +  4  +  1  +  2  +  3  +  4  +
e|-0-----0-----3-----------3--3--3--3--3--3--3-----|
B|-2-----0-----3-----------3--3--3--3--3--3--3-----|
G|-2-----1-----4-----------4--4--4--4--4--4--4-----|
D|-2-----2-----5-----------5--5--5--5--5--5--5-----|
A|-0-----2-----5-----------5--5--5--5--5--5--5-----|
E|-0-----0-----3-----------3--3--3--3--3--3--3-----|

(Guitar 2)
   1  +  2  +  3  +  4  +  1    +    2  +  3  +  4  +
e|------------------------------------------------------|
B|-------12----14-12----12----12-14--12-14-12-14-12-----|
G|-11/14----14-------14----14-----------------------14--|
D|------------------------------------------------------|
A|------------------------------------------------------|
E|------------------------------------------------------| (x3)

   1  +  2  +  3  +  4  +  1    +    2  +  3  +  4  +  1  +  2  +  3  +  4  +
e|-------------------------------------------------------------------------------|
B|-------12----14-12----12----12-14--12-14-12-14-12-14-12-14-12-14-12-14-12-14---|
G|-11/14----14-------14----14----------------------------------------------------|
D|-------------------------------------------------------------------------------|
A|-------------------------------------------------------------------------------|
E|-------------------------------------------------------------------------------|

[Verse]
(Guitar 1)
   1  +  2  +  3  +  4  +  1  +  2  +  3  +  4  +  1  +  2  +  3  +  4  +  1  +  2  +  3  +  4  +
e|-9-----9--9-----9-----7-----7--x--7-----7--7--7--5-----5--5-----7-----5-----5--x--5-----5--5--5-|
B|-10----10-10----9-----9-----9--x--9-----9--9--9--5-----5--5-----9-----7-----7--x--7-----7--7--7-|
G|-11----11-11----10----9-----9--x--9-----9--9--9--6-----6--6-----9-----7-----7--x--7-----7--7--7-|
D|-11----11-11----11----9-----9--x--9-----9--9--9--7-----7--7-----9-----7-----7--x--7-----7--7--7-|
A|-9-----9--9-----11----7-----7--x--7-----7--7--7--7-----7--7-----7-----5-----5--x--5-----5--5--5-|
E|----------------9--------------------------------5-----5--5-------------------------------------|

   1  +  2  +  3  +  4  +  1  +  2  +  3  +  4  +  1  +  2  +  3  +  4  +  1  +  2  +  3  +  4  +
e|-5-----5--5-----2-----5-----5--x--5-----5--5--5--5----------------------------------------------|
B|-7-----7--7-----3-----6-----6--x--6-----6--6--6--5----------------------------------------------|
G|-7-----7--7-----4-----7-----7--x--7-----7--7--7--6-----6-4---------6-4---------6-4--------------|
D|-7-----7--7-----4-----7-----7--x--7-----7--7--7--7-----7-7---------7-7---------7-7------7-------|
A|-5-----5--5-----2-----5-----5--x--5-----5--5--5--7-----7-7---------7-7---------7-7--------------|
E|-------------------------------------------------5----------------------------------------------|

   1  +  2  +  3  +  4  +  1  +  2  +  3  +  4  +  1  +  2  +  3  +  4  +  1  +  2  +  3  +  4  +
e|-9-----9--9-----9-----7-----7--x--7-----7--7--7--5-----5--5-----7-----5-----5--x--5-----5--5--5-|
B|-10----10-10----9-----9-----9--x--9-----9--9--9--5-----5--5-----9-----7-----7--x--7-----7--7--7-|
G|-11----11-11----10----9-----9--x--9-----9--9--9--6-----6--6-----9-----7-----7--x--7-----7--7--7-|
D|-11----11-11----11----9-----9--x--9-----9--9--9--7-----7--7-----9-----7-----7--x--7-----7--7--7-|
A|-9-----9--9-----11----7-----7--x--7-----7--7--7--7-----7--7-----7-----5-----5--x--5-----5--5--5-|
E|----------------9--------------------------------5-----5--5-------------------------------------|

   1  +  2  +  3  +  4  +  1  +  2  +  3  +  4  +  1  +  2  +  3  +  4  +  1  +  2  +  3  +  4  +
e|-5-----5--5-----2-----0-----0--0--0-----2-----3-----3--3--3-----0-----0-----0--0--0-----0--0--0-|
B|-7-----7--7-----3-----2-----2--2--2-----3-----3-----3--3--3-----2-----0-----0--0--0-----0--0--0-|
G|-7-----7--7-----4-----2-----2--2--2-----4-----4-----4--4--4-----2-----1-----1--1--1-----1--1--1-|
D|-7-----7--7-----4-----2-----2--2--2-----4-----5-----5--5--5-----2-----2-----2--2--2-----2--2--2-|
A|-5-----5--5-----2-----0-----0--0--0-----2-----5-----5--5--5-----0-----2-----2--2--2-----2--2--2-|
E|----------------------0-----0--0--0-----------3-----3--3--3-----0-----0-----0--0--0-----0--0--0-|

   1  +  2  +  3  +  4  +
e|----0--0--0-----0--0--0-|
B|----0--0--0-----0--0--0-|
G|----1--1--1-----1--1--1-|
D|----2--2--2-----2--2--2-|
A|----2--2--2-----2--2--2-|
E|----0--0--0--0--0--0--0-|

(Guitar 2)
      1  +  2  +  3  +  4  +  1  +  2  +  3  +  4  +     1  +  2  +  3  +  4  +  1  +  2  +  3  +  4  +
e|-10/12----10-----------8/10----10-9--9----------------------------------------------------------------|
B|-------------14----12-------------------12-12-10-10-10/12----14-12-------14-12-------14---------------|
G|----------------------------------------------------------------------------------------14------------|
D|------------------------------------------------------------------------------------------------------|
A|------------------------------------------------------------------------------------------------------|
E|------------------------------------------------------------------------------------------------------|

      1  +  2  +  3  +  4  +  1  +  2  +  3  +  4  +     1  +  2  +  3  +  4  +  1  +  2  +  3  +  4  +
e|-10/12----10-----------8/10----10-9--9----------------------------------------------------------------|
B|-------------14----12-------------------12-12-10-10-10/12----14-12-------14-12-------14-12------------|
G|----------------------------------------------------------------------------------------------14------|
D|------------------------------------------------------------------------------------------------------|
A|------------------------------------------------------------------------------------------------------|
E|------------------------------------------------------------------------------------------------------|

      1  +  2  +  3  +  4  +  1  +  2  +  3  +  4  +     1  +  2  +  3  +  4  +  1  +  2  +  3  +  4  +
e|-10/12----10--------------8/10-10-9--9----------------------------------------------------------------|
B|-------------14----12-------------------12-12-10-10-10/12----14-12-------14-12-------14---------------|
G|----------------------------------------------------------------------------------------11------------|
D|------------------------------------------------------------------------------------------------------|
A|------------------------------------------------------------------------------------------------------|
E|------------------------------------------------------------------------------------------------------|

   1  +  2  +  3  +  4  +  1  +  2  +  3  +  4  +  1  +  2  +  3  +  4  +  1  +  2  +  3  +  4  +
e|----------------------12----10----9--------------------------------------------------------------|
B|-12----14-12----10----------------------10-------8-----10-8--------10----------------------------|
G|-------------------------------------------------------------------------9-----------------------|
D|-------------------------------------------------------------------------------------------------|
A|-------------------------------------------------------------------------------------------------|
E|-------------------------------------------------------------------------------------------------|


[Pre-Bridge]
(Guitar 1)
   1  +  2  +  3  +  4  +  1  +  2  +  3  +  4  +  1  +  2  +  3  +  4  +  1  +  2  +  3  +  4  +
e|-0-----0-----2-----------0-----0-----2-----------0-----0-----2-----------0-----0-----3------------|
B|-2-----0-----3-----------2-----0-----3-----------2-----0-----3-----------2-----0-----3------------|
G|-2-----1-----2-----------2-----1-----4-----------2-----1-----2-----------2-----1-----4------------|
D|-2-----2-----0-----------2-----2-----4-----------2-----2-----0-----------2-----2-----5------------|
A|-0-----2-----------------0-----2-----2-----------0-----2-----------------0-----2-----5------------|
E|-0-----0-----------------0-----0-----------------0-----0-----------------0-----0-----3------------|

   1  +  2  +  3  +  4  +
e|-------------------------|
B|-------------------------|
G|-------------------------|
D|-5--5--5--5--5-----------|
A|-5--5--5--5--5-----------|
E|-3--3--3--3--3--0--0--1--|

[Bridge]
(Guitar 1)
   1  +  2  +  3  +  4  +  1  +  2  +  3  +  4  +  1  +  2  +  3  +  4  +  1  +  2  +  3  +  4  +
e|-------2--2-----2--2--2--------0--0-----0--0--0--------2--2-----2--2--2--------2--2-----2--2--2--|
B|-------2--2-----2--2--2--------0--0-----0--0--0--------4--4-----4--4--4--------4--4-----4--4--4--|
G|-------3--3-----3--3--3--------1--1-----1--1--1--------4--4-----4--4--4--------4--4-----4--4--4--|
D|-------4--4-----4--4--4--------2--2-----2--2--2--------4--4-----4--4--4--------4--4-----4--4--4--|
A|-------4--4-----4--4--4--------2--2-----2--2--2--2-----2--2-----2--2--2--2-----2--2-----2--2--2--|
E|-2-----2--2-----2--2--2--0-----0--0-----0--0--0--------------------------------------------------| (x4)

(Guitar 2)
   1  +  2  +  3  +  4  +
e|-7--9--7--9--7--9--7--9--|
B|-------------------------|
G|-------------------------|
D|-------------------------|
A|-------------------------|
E|-------------------------| (x16)

[Chorus 2]
(Guitar 1)
   1  +   2  +   3  +   4  +
e|----0-0----0-0----2-2---2-2-2-|
B|----2-2----0-0----3-3---3-3-3-|
G|----2-2----1-1----2-2---2-2-2-|
D|----2-2----2-2-0--0-0---0-0-0-|
A|-0--0-0----2-2----------------|
E|----0-0-0--0-0----------------| (x7)

   1  +   2  +   3  +   4  +   1  +   2  +
e|----0-0----0-0----3-3----3-3----3-3----3-3-|
B|----2-2----0-0----3-3----3-3----3-3----3-3-|
G|----2-2----1-1----4-4----4-4----4-4----4-4-|
D|----2-2----2-2----5-5----5-5----5-5----5-5-|
A|-0--0-0----2-2----5-5----5-5----5-5----5-5-|
E|----0-0-0--0-0-3--3-3-3--3-3-3--3-3-3--3-3-|

(Guitar 2)
   1  +  2  +  3  +  4  +  1    +    2  +  3  +  4  +
e|------------------------------------------------------|
B|-------12----14-12----12----12-14--12-14-12-14-12-----|
G|-11/14----14-------14----14-----------------------14--|
D|------------------------------------------------------|
A|------------------------------------------------------|
E|------------------------------------------------------| (x7)

   1  +  2  +  3  +  4  +  1    +    2  +  3  +  4  +  1  +  2  +
e|-----------------------------------------------------------------|
B|-------12----14-12----12----12-14--12-14-12-14-12-14-12-14-12-14-|
G|-11/14----14-------14----14--------------------------------------|
D|-----------------------------------------------------------------|
A|-----------------------------------------------------------------|
E|-----------------------------------------------------------------|

[Outro]
(Guitar 1)
   1  +  2  +  3  +  4  +  1  +  2  +  3  +  4  +  1  +  2  +  3  +  4  +  1  +  2  +  3  +  4  +
e|-9-----9--9-----9-----7-----7--x--7-----7--7--7--5-----5--5-----7-----5-----5--x--5-----5--5--5-|
B|-10----10-10----9-----9-----9--x--9-----9--9--9--5-----5--5-----9-----7-----7--x--7-----7--7--7-|
G|-11----11-11----10----9-----9--x--9-----9--9--9--6-----6--6-----9-----7-----7--x--7-----7--7--7-|
D|-11----11-11----11----9-----9--x--9-----9--9--9--7-----7--7-----9-----7-----7--x--7-----7--7--7-|
A|-9-----9--9-----11----7-----7--x--7-----7--7--7--7-----7--7-----7-----5-----5--x--5-----5--5--5-|
E|----------------9--------------------------------5-----5--5-------------------------------------|

   1  +  2  +  3  +  4  +  1  +  2  +  3  +  4  +  1  +  2  +  3  +  4  +  1  +  2  +  3  +  4  +
e|-5-----5--5-----2-----5-----5--x--5-----5--5--5--5----------------------------------------------|
B|-7-----7--7-----3-----6-----6--x--6-----6--6--6--5----------------------------------------------|
G|-7-----7--7-----4-----7-----7--x--7-----7--7--7--6-----6-4---------6-4---------6-4--------------|
D|-7-----7--7-----4-----7-----7--x--7-----7--7--7--7-----7-7---------7-7---------7-7------7-------|
A|-5-----5--5-----2-----5-----5--x--5-----5--5--5--7-----7-7---------7-7---------7-7--------------|
E|-------------------------------------------------5----------------------------------------------|

(Guitar 2)
      1  +  2  +  3  +  4  +  1  +  2  +  3  +  4  +     1  +  2  +  3  +  4  +  1  +  2  +  3  +  4  +
e|-10/12----10-----------8/10----10-9--9----------------------------------------------------------------|
B|-------------14----12-------------------12-12-10-10-10/12----14-12-------14-12-------14---------------|
G|----------------------------------------------------------------------------------------14------------|
D|------------------------------------------------------------------------------------------------------|
A|------------------------------------------------------------------------------------------------------|
E|------------------------------------------------------------------------------------------------------|

      1  +  2  +  3  +  4  +  1  +  2  +  3  +  4  +     1  +  2  +  3  +  4  +  1  +  2  +  3  +  4  +
e|-10/12----10-----------8/10----10-9--9----------------------------------------------------------------|
B|-------------14----12-------------------12-12-10-10-10/12----14-12-------14-12-------14-12------------|
G|----------------------------------------------------------------------------------------------14------|
D|------------------------------------------------------------------------------------------------------|
A|------------------------------------------------------------------------------------------------------|
E|------------------------------------------------------------------------------------------------------|


************************************

| x   Dead note
| /   Slide up

************************************

            
            
Suggest correction
Creating personal tab
Creating personal tab
You can edit any tab online and save it as your Personal.

You can edit, replace or remove any tab part or add personal notes – all changes will be seen only by you.

Personal tabs can be accessed anytime from any device, even offline.
Learn more »
Give kudos to tab author, rate the tab!
1 2 3 4 5
comments
print report bad tab
1 comment total.
0 reply
izosmond 10 Aug 31, 2017 04:03 PM

TIming and chords are good. Guitar two can be played really easily on just the high e though!

guest
You may want to rate the tab now too:
select rating
Wanna post a correction for this tab? Suggest correction