Oops, an error
Loading. Please wait.

Chelsea Monday tab

version 1
version 1

Whole song

Interactive

3,923 views 12 this week
no commentswrite comment
1 2 3 4 5
1 last vote to show rating
add to favorites
×
Save as Personal and add changes to this tab that will be seen only by you. Learn more ›
×
You can save this tab as Personal to edit and correct it or add notes. All changes will be seen only by you. Learn more »
launch autoscroll
font size
0
reset
how to read this tab
guitar tuner
backing track
0:00
0:00
edit
Autoscroll
slow
fast
+/-
esc
set tempo
stop
Author
#----------------------------------PLEASE NOTE---------------------------------#
#This file is the author's own work and represents their interpretation of the #
#song. You may only use this file for private study, scholarship, or research. #
#------------------------------------------------------------------------------#

I WILL NOT TAKE ANY CREDIT FOR THIS TAB!
THIS IS NOT MY WORK.

Marillion - Chelsea Monday
==========================

Tabbed by Mike Cannon (smilock@hotmail.com)

What a beast of a song! That took a while to do. Look out for the parts with
slow attacks (either an effect or by using the volume knob on the guitar). 
Enjoy

Tab Explanation
===============

s	Slide
h	Hammer-on
p	Pull-off
T	Tap
B	Bend the note to the fret after the B
R	Release back to the originally bent note
A.H.	Artificial Harmonic
m	Palm Muted
//	Trem Pick (Pick as fast as possible)

Gtr. 1 - Distorted Electric
Gtr. 2 - Slightly Distorted Electric
Gtr. 3 - Distorted Electric
Gtr. 4 - Clean Electric
==============================
Part 1 (Gtr. 1 with slow attack)
======
Catalogue princess, apprentice seductress 
Hiding in her cellophane world in glitter town
			A.H
e|--------------------------------|
B|-17b18~-18r17~------------------|
G|---------------17b19~-19r17s14~-| Gtr. 1
D|--------------------------------|
A|--------------------------------|
E|--------------------------------| 
Awaiting the prince in his white Capri
e|--------|
B|-13r11~-|
G|--------|
D|--------|
A|--------|
E|--------|
Dynamic young Tarzan courts the bedsit queen
e|----------20s15-----|
B|-8s20~s8--------15~-|
G|--------------------|
D|--------------------|
A|--------------------|
E|--------------------|
She's playing the actress in this bedroom scene 
She's learning her lines from glossy magazines
e|-----------------|
B|-15s17b18r17s15~-|
G|-----------------|
D|-----------------|
A|-----------------|
E|-----------------|
Stringing all her pearls from her childhood dreams 
Auditioning for the leading role 
e|-17b18~r17~-|
B|------------|
G|------------|
D|------------|
A|------------|
E|------------|
on the silver screen 
e|--------------|
B|--------------|
G|-14b15r14s12~-|
D|--------------|
A|--------------|
E|--------------|Patience my tinsel angel
Patience my perfumed child 
e|-10~s17~-|
B|---------|
G|---------|
D|---------|
A|---------|
E|---------|One day they really love you
You'll charm them with that smile
e|-------------------|
B|-17b18~r17~s13s15~-|
G|-------------------| But for now
D|-------------------|
A|-------------------|
E|-------------------|

e|-17~s10~---------------|
B|---------13b14~r13s11~-|
G|-----------------------|
D|-----------------------|
A|-----------------------|
E|-----------------------|it's just another Chelsea Monday

Guitar Solo (Gtr. 2 plays |E5|D5|C5|A5|)
===========
  Hold Bend-|
e|-17b19~-19-19r17-14-17b19~-----------------------------------------|
B|---------------------------15b17~-17r15p12-15b17r15p12-15b17r15p12-|
G|-------------------------------------------------------------------|
D|-------------------------------------------------------------------|
A|-------------------------------------------------------------------|
E|-------------------------------------------------------------------|

e|------------------------------------------12-14b15~r14p12-14b15r14-|
B|-15b17r15p12-15b17r15p12-15b17~-12---------------------------------|
G|-----------------------------------14b16~--------------------------|
D|-------------------------------------------------------------------|
A|-------------------------------------------------------------------|
E|-------------------------------------------------------------------|
							A.H
e|-----19~-17h19-15-15h17~-17p15p14------------------------------|
B|-13~------------------------------15---------------------------|
G|-------------------------------------14------------------------|
D|----------------------------------------s17-16--------7b9r7----|
A|-----------------------------------------------17s19~-------7~-|
E|---------------------------------------------------------------|

e|----------------------------------------------------------------|
B|----8-7---------------------------------------------------15b17-|
G|-9~-----7----------9s12-12s14-14s16-16s19-19s21-21-21-21~-------|
D|----------9-7s9-12----------------------------------------------|
A|----------------------------------------------------------------|
E|----------------------------------------------------------------|

e|---------------------------------------------12-------12-------------|
B|--------------------15-------15--------------------------12----------|
G|-12~-12----12-14b16----14b16----14b16~-14b16----14b16----14b16r14p12-|
D|--------14-----------------------------------------------------------|
A|---------------------------------------------------------------------|
E|---------------------------------------------------------------------|

From *, all higher notes are played by Gtr. 3
						   *
e|-------------------------------------------------14h15-12h14-|
B|-------------------------12h13----12-------------12h13----12-|
G|--------11b12~-12r11-----------14----12h14-11h12-------14----|
D|-14~-14--------------14~-------------------------------------|
A|-------------------------------------------------------------|
E|-------------------------------------------------------------|

e|----12-------12~-----|
B|-15----13h15-12~-17~-|
G|-12h14-11h12---------|
D|---------------------|
A|---------------------|
E|---------------------|

e|-----14-15-17b19-17-15-14--------14-15b17~-17r15p14-----------|
B|-17~----------------------17~-17--------------------15-15b17~-|
G|--------------------------------------------------------------| Gtr. 1 (x2)
D|--------------------------------------------------------------|
A|--------------------------------------------------------------|
E|--------------------------------------------------------------|
 |
e|-----17-19-20b22-20-19-17--------17-19b20~-20r19p17-----------|
B|-20~----------------------20~-20--------------------19-19-20~-|
G|--------------------------------------------------------------| Gtr. 3 (x2)
D|--------------------------------------------------------------|
A|--------------------------------------------------------------|
E|--------------------------------------------------------------|


						     h (play 1st time only)
e|-2-----3---------0-----7-----7---2-----3---------0-5-|
B|---0-----0---3s5---0-----0-----0---0-----0---3s5---5-|
G|-----0-----0---------0-----0---------0-----0-------5-| x 2 (Gtr. 4)
D|-----------------------------------------------------|
A|-----------------------------------------------------|
E|-----------------------------------------------------|

Part 2
======
e|------|
B|------|
G|------| Gtr. 2 (w/Slow Attack)
D|------|
A|-7s5~-|
E|------|

e|---1-----0---------1-----0---------1-----0-----------------------|
B|-----3-----3---------3-----3---------3-----3-------3-------3---3-|
G|-------2-----2---------0-----0---------0-----0-------0-----------| (Gtr. 4)
D|-0-------------0---------------0---------------0-------0---------|
A|-----------------3---------------1-------------------------------|
E|-------------------------------------------------3-------1---0---|

Drifting with her incense in the labyrinth of London
Playing games with faces in the neon wonderland
Perform to scattered shadows on the shattered cobbled aisles
Would she dare recite soliloquies at the risk of stark applause

Part 3
======
e|----------2b3r3-5b7-5-------------------|
B|--------5--------------------5-7b8r7s1~-|
G|----------------------------------------| Gtr. 3 (w/Slow Attack)
D|-5-4------------------5-4---------------|
A|-----5~-------------------5~------------|
E|----------------------------------------|

She'll pray for endless Sundays as she enters saffron sunsets 
Conjure phantom lovers from the tattered shreds of dawn
Fulfilled and yet forgotten the St. Tropez mirage 
Fragrant aphrodisiac, the withered tuberose

Part 4 (Gtr. 2 plays |F#5|C#5|B5|G5|) 
======
e|--------------------------------------------------------------------|
B|------------------------------------------------15-15-15b17~-15b17~-|
G|-11~-9-11~-11s18-18~-16-18~-18b19r18-16~-14-16~---------------------|
D|--------------------------------------------------------------------|
A|--------------------------------------------------------------------|
E|--------------------------------------------------------------------|

e|------------------------------------------------------15b17-15b17-15b17~-|
B|-------7t10-7s14-14~----14b15r14b15r14~----------------------------------|
G|-11~-9---------------16-----------------16~-14-16~-16--------------------|
D|-------------------------------------------------------------------------|
A|-------------------------------------------------------------------------|
E|-------------------------------------------------------------------------|

e|-14~-16b17r16----14~-16b17r16--------------------------------------|
B|--------------17--------------17-14~----14~-14b15r14---------------|
G|-------------------------------------16--------------14-16~-14-16~-|
D|-------------------------------------------------------------------|
A|-------------------------------------------------------------------|
E|-------------------------------------------------------------------|
Patience my tinsel angel, patience my perfumed child
One day they really love you, you'll charm them with that smile
e|---------------------------------16b17r16-14------------------------|
B|-15~-15b17r15b17r15r17-15~-15-14-------------17-15-14---------------|
G|------------------------------------------------------16-14-13~-----|
D|----------------------------------------------------------------14~-|
A|--------------------------------------------------------------------|
E|--------------------------------------------------------------------|

e|----------------------------------//-----//--|
B|-------------------------------15s3-~s17-20~-|
G|----13~-13b14-13b14-16~-14-16~---------------|
D|-14------------------------------------------|
A|---------------------------------------------|
E|---------------------------------------------|
But for now it's just another Chelsea Monday

Part 5 (Gtr. 2 plays |F#5|B5|D5|E5|)
======
				 *higher notes overdubbed by Gtr. 3)
e|-------------12~-11h12p11p9------------------------|
B|----------------------------12~-10~-8--10~---------|
G|-11~-9-11-11--------------------7~-----7~-----7-9~-| x2
D|------------------------------------10-----9~------|
A|---------------------------------------------------|
E|---------------------------------------------------|
[Hello John, did you see The Standard about four hours ago? 
Fished a young chick out of The Old Father 
Blond hair, blue eyes. She said she wanted to be an actress or something
e|-14~-16b17r16----14~-19-21-19-19b21-19b21r19p17-19b21~-19b21r19p17-19~-|
B|--------------17-------------------------------------------------------|
G|-----------------------------------------------------------------------|
D|-----------------------------------------------------------------------|
A|-----------------------------------------------------------------------|
E|-----------------------------------------------------------------------|
Nobody knows where she came from, where she was going 
Funny thing was she had a smile on her face 
She was smiling, what a waste]

e|-17-19~-22b24-22b24-22b24-22b24-22b24-22b24-22b24~-14~-16b17r16----14~-|
B|----------------------------------------------------------------17-----|
G|-----------------------------------------------------------------------|
D|-----------------------------------------------------------------------|
A|-----------------------------------------------------------------------|
E|-----------------------------------------------------------------------|

e|-16b17r16-----------------------------------------15-14----------------|
B|----------17-14~----14~---------------------------------17-15-14-15-14-|
G|-----------------16-----16b18r16p14-16~-14-16~-16----------------------|
D|-----------------------------------------------------------------------|
A|-----------------------------------------------------------------------|
E|-----------------------------------------------------------------------|

e|--------------------------------|
B|--------------------------------|
G|-16-14-16-14-12----12-----------|
D|----------------16----16-14-----|
A|----------------------------16~-|
E|--------------------------------|

Outro (Gtr. 4)
=====
Catalogue princess, apprentice seductress 
Buried in her cellophane world in glitter town
Of Chelsea Monday
e|-9-------9-------------9-------9-------9----9-----9----------|
B|---10---------10-12------10------10---------------------12---|
G|------11---11-------11------11------11---11---9-9---9-9----9-|
D|-------------------------------------------------------------|
A|-------------------------------------------------------------|
E|-------------------------------------------------------------|

e|-9-----9----------7-----7--------7-7-----7-----7---|
B|-------------12-----7-----7---10-----7-----7-------|
G|---9-9---9-9----9-----8-----8----------8-----8---8-|
D|---------------------------------------------------|
A|---------------------------------------------------|
E|---------------------------------------------------|

e|-10-------10-------10----12-------12-------10----|
B|----12-------12-------------12-------12----------|
G|-------12-------12----12-------12-------12----12-|
D|-------------------------------------------------|
A|-------------------------------------------------|
E|-------------------------------------------------|

            
            
Suggest correction
Creating personal tab
Creating personal tab
You can edit any tab online and save it as your Personal.

You can edit, replace or remove any tab part or add personal notes – all changes will be seen only by you.

Personal tabs can be accessed anytime from any device, even offline.
Learn more »
Give kudos to tab author, rate the tab!
1 2 3 4 5
comments
print report bad tab
guest
You may want to rate the tab now too:
select rating
Wanna post a correction for this tab? Suggest correction