Oops, an error
Loading. Please wait.

Arma-Goddamn-Motherfuckin-Geddon tab

version 3
version 3

Whole song

Interactive

538 views 1 this week
no commentswrite comment
1 2 3 4 5
3 more votes to show rating
add to favorites
×
Save as Personal and add changes to this tab that will be seen only by you. Learn more ›
×
You can save this tab as Personal to edit and correct it or add notes. All changes will be seen only by you. Learn more »
launch autoscroll
font size
0
reset
how to read this tab
guitar tuner
edit
Autoscroll
slow
fast
+/-
esc
set tempo
stop
 -------------------------------------------------------------------------------
 Arma-goddamn-motherfuckin-geddon acoustic - Marilyn Manson
 -------------------------------------------------------------------------------
Tabbed by:
E-mail: Mrjdog@live.com

Tuning: Drop D (D-A-D-G-B-e)

This song uses 3 guitars, 2 acoustics, and 1 electric.
Acoustic Guitar #1 does the intros,
Acoustic Guitar #2 does everything else,
The Electric guitar can be heard during the solo and
plays along with the acoustic during the Chorus.

Intro: 0:01 - 0:15

e|-------------------------|
B|-------------------------|
G|--------------7----pb11--|
D|---9-----9---------------|
A|------9------------------|
D|-------------------------| x4

Verse: 0:15 - 0:30

e|----------------------------------------------------|
B|----------------------------------------------------|
G|------------------------------------------------*---|
D|---9---9---7-9-7--9---9---7-9-7--9---9--7-9-7---12--|
A|---9---9---7-9-7--9---9---7-9-7--9---9--7-9-7---12--|
D|---9---9---7-9-7--9---9---7-9-7--9---9--7-9-7---12--| x2

Pre-Chorus: 0:30 - 0:44

e|----------------------------------------------------|
B|----------------------------------------------------|
G|------------------------------------------------*---|
D|---9---9---7-9-7--9---9---7-9-7--9---9--7-9-7---12--|
A|---9---9---7-9-7--9---9---7-9-7--9---9--7-9-7---12--|
D|---9---9---7-9-7--9---9---7-9-7--9---9--7-9-7---12--| x2

Chorus: 0:44 - 1:09

e|--------------------------------------|
B|--------------------------------------|
G|--*--*--------------------------------|
D|--5--4--9---9---7-9-7--9---9---7-9-7--|
A|--5--4--9---9---7-9-7--9---9---7-9-7--|
D|--5--4--9---9---7-9-7--9---9---7-9-7--| x2

e|----------------------|
B|----------------------|
G|--*--*--*---*---*--*--|
D|--5--4--12--11--5--7--|
A|--5--4--12--11--5--7--|
D|--5--4--12--11--5--7--|

Intro 2: 1:10 - 1:23
Guitar 1:
e|---------------------|
B|---------------------|
G|-----------7---pb11--|
D|---9---9-------------|
A|-----9---------------|
D|---------------------| x4

Guitar 2:
e|----------------------------------------------|
B|----------------------------------------------|
G|----------------------------------------------|
D|-9---9---9---9-7-7-7--9---9---9---12-12-12-12-|
A|-9---9---9---9-7-7-7--9---9---9---12-12-12-12-|
D|-9---9---9---9-7-7-7--9---9---9---12-12-12-12-| x2

Verse 2: 1:24 - 1:38

e|----------------------------------------------------|
B|----------------------------------------------------|
G|------------------------------------------------*---|
D|---9---9---7-9-7--9---9---7-9-7--9---9--7-9-7---12--|
A|---9---9---7-9-7--9---9---7-9-7--9---9--7-9-7---12--|
D|---9---9---7-9-7--9---9---7-9-7--9---9--7-9-7---12--| x2

Pre-Chorus: 1:39 - 1:53

e|----------------------------------------------------|
B|----------------------------------------------------|
G|------------------------------------------------*---|
D|---9---9---7-9-7--9---9---7-9-7--9---9--7-9-7---12--|
A|---9---9---7-9-7--9---9---7-9-7--9---9--7-9-7---12--|
D|---9---9---7-9-7--9---9---7-9-7--9---9--7-9-7---12--| x2

Chorus: 1:53 - 2:19

e|--------------------------------------|
B|--------------------------------------|
G|--*--*--------------------------------|
D|--5--4--9---9---7-9-7--9---9---7-9-7--|
A|--5--4--9---9---7-9-7--9---9---7-9-7--|
D|--5--4--9---9---7-9-7--9---9---7-9-7--| x2

e|----------------------|
B|----------------------|
G|--*--*--*---*---*--*--|
D|--5--4--12--11--5--7--|
A|--5--4--12--11--5--7--|
D|--5--4--12--11--5--7--|

Solo: 2:19 - 2:33
Done on electric guitar, but this acoustic part is played underneath it.

e|----------------------------------------------|
B|----------------------------------------------|
G|----------------------------------------------|
D|-9---9---9---9-7-7-7--9---9---9---12-12-12-12-|
A|-9---9---9---9-7-7-7--9---9---9---12-12-12-12-|
D|-9---9---9---9-7-7-7--9---9---9---12-12-12-12-| x2

Bridge: 2:33 - 2:55

e|-----------------------------|
B|-----------------------------|
G|-X--X--X-X-X-X-X--X-X-XXXXXX-|
D|-X--X--X-X-X-X-X--X-X-XXXXXX-|
A|-X--X--X-X-X-X-X--X-X-XXXXXX-|
D|-X--X--X-X-X-X-X--X-X-XXXXXX-| x6
Play these muted with your left hand around the 7th fret
Listen to the song to get the Rhythm

Chorus: 2:55 - 3:20

e|--------------------------------------|
B|--------------------------------------|
G|--*--*--------------------------------|
D|--5--4--9---9---7-9-7--9---9---7-9-7--|
A|--5--4--9---9---7-9-7--9---9---7-9-7--|
E|--5--4--9---9---7-9-7--9---9---7-9-7--| x2

e|----------------------|
B|----------------------|
G|--*--*--*---*---*--*--|
D|--5--4--12--11--5--7--|
A|--5--4--12--11--5--7--|
E|--5--4--12--11--5--7--|

Outro: 3:21 - 3:35

e|----------------------------------------------|
B|----------------------------------------------|
G|----------------------------------------------|
D|-9---9---9---9-7-7-7--9---9---9---12-12-12-12-|
A|-9---9---9---9-7-7-7--9---9---9---12-12-12-12-|
D|-9---9---9---9-7-7-7--9---9---9---12-12-12-12-| x2

************************************

| *   8 Strums
| x   Mute note
| pb  Pre-bend

************************************
Feel free to post ANY comments and corrections, i did about half of this
listening by ear,and the rest I looked at tabs of the original song.

            
            
Suggest correction
Creating personal tab
Creating personal tab
You can edit any tab online and save it as your Personal.

You can edit, replace or remove any tab part or add personal notes – all changes will be seen only by you.

Personal tabs can be accessed anytime from any device, even offline.
Learn more »
Give kudos to tab author, rate the tab!
1 2 3 4 5
comments
print report bad tab
guest
You may want to rate the tab now too:
select rating
Wanna post a correction for this tab? Suggest correction