Oops, an error
Loading. Please wait.
We have an official Beautiful People tab made by UG professional guitarists. Check out the tab »
×
16,663 views 12 this week
8 commentsread comments
1 2 3 4 5
x 6
add to favorites
×
Save as Personal and add changes to this tab that will be seen only by you. Learn more ›
×
You can save this tab as Personal to edit and correct it or add notes. All changes will be seen only by you. Learn more »
launch autoscroll
font size
0
reset
how to read this tab
guitar tuner
edit
Autoscroll
slow
fast
+/-
esc
set tempo
stop
2. the beautiful people
Low to high: D, A, D, G, B, E.


[Intro]

E|e)--------------------------------------------------------------------------|
B|b)--------------------------------------------------------------------------|
G|g)--------------------------------------------------------------------------|
D|d)--x--x--x--x--x---------------0----3---0-----0----3---0-------0---3---0---|
A|a)--x--x--x--x--x----repeat-----0----3---0-----0----3---0-------0---3---0---|
D|)--x--x--x--x--x---------------0----3---0-----0----3---0-------0---3---0---|


E|----------------------------------------------------------------------------|
B|----------------------------------------------------------------------------|
G|----------------------------------------------------------------------------|
D|-0--3---0------0--6--0--6--0-----------0--6--0--6--0------------------------|
A|-0--3---0------0--6--0--6--0-----------0--6--0--6--0------repeat 4 times----|
D|-0--3---0------0--6--0--6--0-----------0--6--0--6--0------------------------|

[Verse]
(bass only) Second part of verse guitar in

E|---------------------------------------------------------------------------|
B|---------------------------------------------------------------------------|
G|---------------------------------------------------------------------------|
D|--x--x--x--x--x--x--x--x--x--x--x--x--x--x---------------------------------|
A|--x--x--x--x--x--x--x--x--x--x--x--x--x--x-----------repeat----------------|
D|--x--x--x--x--x--x--x--x--x--x--x--x--x--x---------------------------------|


[Bridge]

E|----------------------------------------------------------------------------|
B|----------------------------------------------------------------------------|
G|--7--7--7--7------6--6--6------5--5--5-----4--4--4-----repeat-2-times-------|
D|----------------------------------------------------------------------------|
A|--5--5--5--5------4--4--4------3--3--3-----2--2--2--------------------------|
D|----------------------------------------------------------------------------|

[Chorus]

E|-----------------------------------------------------------------------------|
B|-----------------------------------------------------------------------------|
G|-----------------------------------------------------------------------------|
D|--0--6--0--6--0-----------0--6--0--6--0---------0--3--0----------------------|
A|--0--6--0--6--0-----------0--6--0--6--0---------0--3--0-----repeat4-times----|
D|--0--6--0--6--0-----------0--6--0--6--0---------0--3--0----------------------|

Riff 1

Then When is ah,ah

E|-----------------------------------------------------------------------------|
B|-----------------------------------------------------------------------------|
G|-----------------------------------------------------------------------------|
D|-----------0--0--0--3--0-----------------0--0--0--3--0-----------------------|
A|-Ah,ah-----0--0--0--3--0-------Ah,ah,----0--0--0--3--0-----------------------|
D|-----------0--0--0--3--0-----------------0--0--0--3--0-----------------------|

Second Verse (repeat 2 times )

E|--------------------------------------------------------------------------|
B|--------------------------------------------------------------------------|
G|--7------hold---------------(7)--(7)--(7)--(7)---harmonics----------------|
D|--------------0--0--0--3--0-------------------------------0--0--0--3--0---|
A|--------------0--0--0--3--0-------------------------------0--0--0--3--0---|
D|--------------0--0--0--3--0-------------------------------0--0--0--3--0---|
Then hold harmonics

E|--------------------------------------------------------------------------|
B|--------------------------------------------------------------------------|
G|------7(7)--(7)--(7)--(7)-----harmonics-----------------------------------|
D|--------------------------------------------------------------------------|
A|--------------------------------------------------------------------------|
D|--------------------------------------------------------------------------|


[Intro]
[Verse]
[Bridge]
[Chorus]
riff 1(ah,ah,)
[Verse]
[Chorus]
[Bridge]
[chorus] ( With out vocie)
riff 1 (ah,ah)
[chorus] 4x

            
            
Suggest correction
Creating personal tab
Creating personal tab
You can edit any tab online and save it as your Personal.

You can edit, replace or remove any tab part or add personal notes – all changes will be seen only by you.

Personal tabs can be accessed anytime from any device, even offline.
Learn more »
comments
print report bad tab
8 comments total. Showing first comments.
0 reply
Xx_banx 10 Dec 16, 2003 07:00 PM

06060 06060 030 06060 06060 030
you didnt pu the threes in (you do this pattern)

0 reply
Xx_banx 10 Dec 16, 2003 07:00 PM

bah
nvm

0 reply
tiftcte 595 Mar 26, 2004 07:00 PM

IF YOUR GONNA PUT THE BEUTIFUL PEOPLE ON CALL IT THE BEUTIFUL PEOPLE AND PUT IT UNDER SONG NAME NOT ALBUM!

guest
Wanna post a correction for this tab? Suggest correction