Oops, an error
Loading. Please wait.

Blank And White bass

version 1
version 1

Whole song

Interactive

1,692 views 1 this week
1 commentread comment
1 2 3 4 5
x 3
add to favorites
×
Save as Personal and add changes to this tab that will be seen only by you. Learn more ›
×
You can save this tab as Personal to edit and correct it or add notes. All changes will be seen only by you. Learn more »
launch autoscroll
font size
0
reset
guitar tuner
edit
Autoscroll
slow
fast
+/-
esc
set tempo
stop
Author
Tunning: Standard

Verse Part 1

G----------------------------------|
D----------------------------------|Repeat as need
A----------------------------------|
E--0-2-2-0-2-0-2--5--4-5-4-5-4-5-4-|

Verse part 2

G------------------------------|
D------------------------------|
A------------------------------|repeat 2 times
E--0-2-2-0-2-0-2--5--4-5-4-5-7-|

Chorus

G------------------------------------|
D------------------------------------|
A------------------------------------|
E--5-5-5-5-5-5-x-2-2-2-2-2--0-0--0-0-|

G--------------------------------|
D--------------------------------|
A--------------------------------|Play entire chorus twice
E--7-7-7-7-7-x-5-5-5-5-5--0-0-0--|

Bridge

G-----------------------------------------------------------|
D-----------------------------------------------------------|
A--3-3--3-3-3-6--6-6--6-6-6-6--------------3--3-3-3-3-3-3-3-|Repeat as needed
E------------------------------6-6--6-6-6-------------------|

The order of the song is basic. I don't need to explain it
There is a silence where the bass is by itself without guitar, it plays the verse part 1.

            
            
Suggest correction
Creating personal tab
Creating personal tab
You can edit any tab online and save it as your Personal.

You can edit, replace or remove any tab part or add personal notes – all changes will be seen only by you.

Personal tabs can be accessed anytime from any device, even offline.
Learn more »
Give kudos to tab author, rate the tab!
1 2 3 4 5
comments
print report bad tab
1 comment total.
0 reply
Tapwater 134 Feb 13, 2015 05:18 AM, edited at 10:31 am

Very accurate, thank you!
Just so everyone is aware, you play Verse Part 1 six times.

guest
You may want to rate the tab now too:
select rating
Wanna post a correction for this tab? Suggest correction