Oops, an error
Loading. Please wait.

Cake And Sodomy tab

version 1
version 1

Whole song

Interactive

11,688 views 9 this week
no commentswrite comment
1 2 3 4 5
x 3
add to favorites
×
Save as Personal and add changes to this tab that will be seen only by you. Learn more ›
×
You can save this tab as Personal to edit and correct it or add notes. All changes will be seen only by you. Learn more »
launch autoscroll
font size
0
reset
how to read this tab
guitar tuner
backing track
0:00
0:00
edit
Autoscroll
slow
fast
+/-
esc
set tempo
stop
Artist: Marilyn Manson
Song: Cake and Sodomy
Tabbed by: Daniel Cioccoloni - mr_bungle_666@hotmail.com

\= slide down
/=slide up
h= harmonic

Ok, so the song starts with a bass riff and some harmonics, i haven't tabbed them 'cos i 
bercowiz just improvises them.

Then you get the first verse:
------------------------|-10---10---10-10-10-|
------------------------|--------------------|
------------------------|--------------------|
------------------------|--------------------|
-9-9-\4-----------------|--------------------|
-7-7-\2-----------------|--------------------|
virgins sold in quantity  herded by heredity
redneck-burnout...               isn't kind?

Interlude x 2:
------------------------------------------------|
------------------------------------------------|
------------------------------------------------|
------------------------------------------------|
-9-9-9-\4/-9-9-9-9-7-7-7-7-7-----4-4-4-4-4------|
-7-7-7—\2/-7-7-7-7-5-5-5-5-5-7-5-2-2-2-2-2-5-2--|

------------------------------------------------|
------------------------------------------------|
------------------------------------------------|
------------------------------------------------|
-9-9-9-\4/-9-9-9-9-7-7-7-7-7-7-4-4-4-12-12-12---|
-7-7-7—\2/-7-7-7-7-5-5-5-5-5-5-2-2-2-10-10-10---|
pornonation, evaluation...
libido, libido...

chorus x 2:
---------------------10-------------------------------------|
---------------------10-------------------------------------|
------------------------------------------------------------|
------------------------------------------------------------|
-9-9--X-X-X-X--7-7------4-4-4-4-4-4-4-4-7-7-7-7-12-12-12-12-|
-7-7--X-X-X-X--5-5------2-2-2-2-2-2-2-2-5-5-5-5-10-10-10-10-|

------------------------------------------------------------|
---------------12-10-10-------------------------------------|
---------------11-9--9--------------------------------------|
------------------------------------------------------------|
-9-9--X\---7-7----------4-4-4-4-4-4-4-4-7-7-7-7-12-12-12-12-|
-7-7--X\---5-5----------2-2-2-2-2-2-2-2-5-5-5-5-10-10-10-10-|

verse2:
-----------------------|---------h24---------h19--X-X-X-X\--|
-----------------------|-----h24---------h19------X-X-X-X\--|
-----------------------|-h24---------h19----------X-X-X-X\--|
-----------------------|------------------------------------|
-9-9-\4----------------|------------------------------------|
-7-7-\2----------------|------------------------------------|
VCR's and vaseline...
Cash in hand...

Interlude x 2:
--------------h21----------h19-----------h24---------------|
----------h19-----h19----------h19-----------h24-----------|
------h19--------------------------------------------------|
-----------------------------------------------------------|
-9-9------------------7-7-----------4-4--------------------|
-7-7------------------5-5-----------2-2--------------------|

verse:
--------------h21----------h19-----------h24---------------|
----------h19-----h19----------h19-----------h24-----------|
------h19--------------------------------------------------|
-----------------------------------------------------------|
-9-9------------------7-7-----------4-4--------------------|
-7-7------------------5-5-----------2-2--------------------|
bible-belt 'round...

--------------h21------------------------------------------|
----------h19-----h19--------------------------------------|
------h19--------------------------------------------------|
-----------------------------------------------------------|
-9-9------------------7-7-7-7-7-7-7-7-4-4-4-4-12-12-12-12--|
-7-7------------------5-5-5-5-5-5-5-5-2-2-2-2-10-10-10-10--|
yeah, right great...

Chorus

This is the solo, bercowiz uses wha and flanger pedals so it may sound a bit different 
the record:
---------------------------------------------------------------------------|
---------------------------------------------------------------------------|
---------------------------------------------------------------------------|
---------------------------------------------------------------------------|
---------------------------------------------------------------------------|
-2--2--2--2--2--2/5--5--5--5--0--5--0--2--2--2--2--2--2/5--5--5--5/7--7--0-|

---------------------------------------------------------------------------|
---------------------------------------------------------------------------|
--------------------------------------------------------------5--------8---|
-----------------------------------------------------------4--------7------|
--------------------------------------------------------4--------7-------4-|
-2--2--2--2--2--2/5--5--5--5--0--5--0--2--2--2--2--5--5--------------------|

--------------|
--------------|
----5--------8|
-4--------7---|
-------7------|
--------------|

Chorus

And there you have it: "Cake and sodomy" by marilyn manson, have fun playing it, it's a 
song.
Thanks to dierythmus@aol.com for the guitar solo.

Peace,
Daniel '05

            
            
Suggest correction
Creating personal tab
Creating personal tab
You can edit any tab online and save it as your Personal.

You can edit, replace or remove any tab part or add personal notes – all changes will be seen only by you.

Personal tabs can be accessed anytime from any device, even offline.
Learn more »
Give kudos to tab author, rate the tab!
1 2 3 4 5
comments
print report bad tab
guest
Wanna post a correction for this tab? Suggest correction